Guitaretab - guitar tabs
Song name
# A B C D E F G H I J K L M N O P Q R S T U V W X Y Z

Suicidal Tendencies - Goin Breakdown tab

Band:  Suicidal Tendencies
Album: Lights...Camera..Revolution
Song:  Go'n Breakdown

Copyright (c)  (Epic) (1990)
Version 1.0 - (02/05/05)

Transcribed By: Steve
Email:          stephen.Elvidge1@ntlworld.com


.  - palm mute           /  - slide up to
\  - slide down to       ~  - vibrato
h  - hammer on           b  - Bend
p  - pull off            Suffixes for bend
t  - tap                 f  - full bend    h - half bend
ph - pinched harmonic    q  - quarter bend t - tap bend
*  - see comment         ^  - Hold bend    r release bend
x  - Stuccatto           ~  - vibrato bend
,  - slight palm mute    () - ghost note, sustained note
"  - tremolo note        <> - Trill

Tunning E A D G B E
 

 Intro / Main Riff

 [PM]  [PM]  [PM]  [PM]  [-PM-]
E----------------------------------|
B----------------------------------|
G----------------------------------|
D-----2-----5-----4-----3----------|
A-----2-----5-----5-----3-------2--|
E-0-0---0-0---0-0---0-0---0-1-3----| Rpt 6 X

 [PM]  [PM]  [PM]  [PM]  [PM]  Ph~~
E----------------------------------|
B----------------------------------|
G----------------------------------|
D-----2-----5-----4-----3----------|
A-----2-----5-----5-----3-------2--|
E-0-0---0-0---0-0---0-0---0-1-3----|

 Rpt Main Riff

 Verse

 Riff A
                      [PM]        [PM] 
E-------------------------------------------|
B-------------------------------------------|
G-------------------------------------------|
D-7----(7)----------------5----(5)----------|
A-5----(5)----5----(5)----3----(3)----3--3--|
E-------------3----(3)--0-----------0-1--1--|

 [PM]  [PM]   [PM] [PM] 
E----------------------------------|
B----------------------------------|
G----------------------------------|
D-----2-----3-----0-----2-3p2p0-2--|
A-----2-----3-----0-----2-3p2p0-2--|
E-0-0---0-0---0-0---0-0------------|

 Rpt Riff A
 Rpt Main Riff 2 X

 [PM]  [PM]  [PM]  [PM]  [PM]  Ph~~
E----------------------------------|
B----------------------------------|
G----------------------------------|
D-----2-----5-----4-----3----------|
A-----2-----5-----5-----3-------2--|
E-0-0---0-0---0-0---0-0---0-1-3----|

 Rpt Main Riff

 Bridge
[ Tab from: http://www.guitaretab.com/s/suicidal-tendencies/18691.html ]
 [PM]  [PM]  [PM]       h   h  PM   h
E-------------------------------------|
B-------------------------------------|
G-----3-----3-----3\2p0-2-2-3p2---0-2-|
D-----3-----3-----3\2p0-2-2-3p2---0-2-|
A-------------------------------------|
E-0-0---0-0---0-0---------------0-----|

 [PM]  [PM]  [PM]   [------PM----]       
E---------------------------------|
B---------------------------------|
G-----3-----3-----3\--------------|
D-----3-----3-----3\--------------|
A-------------------2-5/4-2-4/5\4-|
E-0-0---0-0---0-0---0-3/2-0-2/3\2-|

  Rpt

 Chorus

 [PM]  [PM]  [PM]       h   h  PM   h
E-------------------------------------|
B-------------------------------------|
G-----3-----3-----3\2p0-2-2-3p2---0-2-|
D-----3-----3-----3\2p0-2-2-3p2---0-2-|
A-----1-----1-------------------------|
E-0-0---0-0---0-0---------------0-----|

 [PM]  [PM]  [PM]   [------PM----]       
E---------------------------------|
B---------------------------------|
G-----3-----3-----3\--------------|
D-----3-----3-----3\--------------|
A-----1-----1-------2-5/4-2-4/5\4-|
E-0-0---0-0---0-0---0-3/2-0-2/3\2-|

 Rpt

 Rpt Main Riff 4 X
 Rpt Bridge
 Rpt Verse
 Rpt Main Riff 4 X
 Rpt Verse

 Backing for guitar solo

  [----PM----]   [-PM-]     [--PM--]
E------------------------------------|
B------------------------------------|
G------------------------------------|
D------------------------------------|
A-4-4-4-4-4-4-5--2-2-2-4----5\4-2-4--|
E-2-2-2-2-2-2-3--0-0-0-2--0-3\2-0-2--| Rpt 2 X

 [PM]  [PM]  [PM]  [PM]     [--PM--]
E-------------------------------------|
B-------------------------------------|
G-------------------------------------|
D-------------------------------------|
A-444-4-444-5-555-2-222-4----5\4-2-4--|
E-222-2-222-3-333-0-000-2--0-3\2-0-2--| Rpt 4 X

 Rpt Main Riff 4 X
 Rpt Bridge
 Rpt Chorus
 Rpt Main Riff 4 X
 Rpt Verse 2 X
 Rpt Main Riff 4 X

 [PM]  [PM]  [PM]  [PM]  [-PM--]
E-----------------------------------|
B-----------------------------------|
G-----------------------------------|
D-----2-----5-----4-----3-----------|
A-----2-----5-----5-----3--------2--|
E-000---0-0---000---000---00-1-3----| Rpt 4 X

                      [PM]        [----PM----] 
E-----------------------------------------------|
B-----------------------------------------------|
G-----------------------------------------------|
D-7----(7)----------------5----(5)--------------|
A-5----(5)----5----(5)----3----(3)----3/5-4\3-2-|
E-------------3----(3)--0-----------0-1/3-2\1-0-|



END
Related for Goin Breakdown tab
Goin Breakdown chords by Suicidal Tendencies