Song name
# A B C D E F G H I J K L M N O P Q R S T U V W X Y Z

Suicidal Tendencies - Get Sick tab

Song:	   Get Sick
Band:	   Suicidal Tendencies
Album:	   Freedumb

Tabbed by: Christian Reindel (creindel@gmx.de)
       any questions or corrections- e-mail me

Intro, Verse , Outro

G:----------------------------------:
D:--13-/--9-9-9------5-/--9-9-9-----:
A:--11-/--7-7-7------3-/--7-7-7-----:
E:----------------------------------:


Chorus

G:-------------------------------------------:
D:--12--12----14--14----9--9----5-/--9--9----:
A:--10--10----12--12----7--7----3-/--7--7----:
E:-------------------------------------------:
Tap to rate this tab
# A B C D E F G H I J K L M N O P Q R S T U V W X Y Z