Song name
# A B C D E F G H I J K L M N O P Q R S T U V W X Y Z

Suicidal Tendencies - Built To Survive tab

Song:	   Built to survive
Band:	   Suicidal Tendencies
Album:	   Freedumb

Tabbed by: Christian Reindel (creindel@gmx.de)
       any questions or corrections- e-mail me

Intro and Verse

G:----------------------------------:
D:----------------------------------:
A:--5/7-7---7/8-8---5/8-8---5/8-8---:   
E:--3/5-5---5/6-6---3/6-6---3/6-6---:


Chorus
				
G:------------------------------:     
D:--7-7-------------------------:    
A:--5-5--8-8---5--5--5--5-------:  3x
E:-------6-6---3--3--3--3-------:  
 

The End of Chorus
				
G:------------------------------:     
D:--7-7-------------------------:    
A:--5-5--8-8---7----------------:  1x
E:-------6-6---5----------------:  


End
Tap to rate this tab
 
# A B C D E F G H I J K L M N O P Q R S T U V W X Y Z