Song name
# A B C D E F G H I J K L M N O P Q R S T U V W X Y Z

Suicidal Tendencies - Hippie Killers tab

Hippie Killers by Suicidal Tendencies
Tabbed by Brett Rogers
email: teepeeformybunghole@hotmail.com

Intro
|----------------------------|
|----------------------------|
|----------------------------|
|---------10-x8--9-x4--7-x4--|
|--7-x16--8------7-----5-----|
|--5-------------------------|

Bass Riff
|--------------------------|
|--------------------------|
|--5--7-8-7-5--3--5-6-5-3--|
|--------------------------|

Verse
|---------------|-------------------|
|---------------|-------------------|
|---------------|-------------------|
|---------------|--8-x8-7--5-7-5-7--|
|--5-5-/8-8888--|--6----5--3-5-3-5--|
|--3-3-/6-6666--|-------------------|

Chorus
|-----------------------|
|-----------------------|
|-----------------------|
|------10-9-7-----------|
|--9-9-8--7-5-10-x-7-8--|
|--7-7--------8--x-5-6--|

Bridge      1,2,3|              4|
|----------------|---------------|
|----------------|---------------|
|----------------|---------------|
|-------9-10-10--|-------9-10-7--|
|--9-x4-7-8--8---|--9-x4-7-8--5--|
|--7-------------|--7------------|

The End

Email me if you have any additions, comments, corrections or even
if you use this tab.
Tap to rate this tab
# A B C D E F G H I J K L M N O P Q R S T U V W X Y Z