Song name
# A B C D E F G H I J K L M N O P Q R S T U V W X Y Z

Suicidal Tendencies - Nobody Hears tab

I couldn't find this song anywhere online
so here's my way of playing it
feel free to correct me e-mail fighting da man @ cox.net


   the begining part
 --------------------------------|
 --------------7-----5-----------|
 --------------7-----7-----------|
 2--5----------------------------|
 2--3---7----------------8-9-5-2-|
 0------5--5-5---5-5-----6-7-3-0-|

< the clean part mixed in >

 then

"so what did I do to you...
---------------------------------------------|
---------------------------------------------|
---------------------------------------------|
--7-5-4-5------------------------------------|
--5-3-2-3-5-2-----------7-5-4-5-4-2----------|
----------3-0-00000000--5-3-2-3-2-0-00000000-|
             <...pm...>            <...pm...>
Tap to rate this tab
# A B C D E F G H I J K L M N O P Q R S T U V W X Y Z