Song name
# A B C D E F G H I J K L M N O P Q R S T U V W X Y Z

Suicidal Tendencies - Get Whacked tab

#----------------------------------PLEASE NOTE---------------------------------#
#This file is the author's own work and represents their interpretation of the #
#song. You may only use this file for private study, scholarship, or research. #
#------------------------------------------------------------------------------#

GET WHACKED
As recorded by Suicidal Tendencies
(From the 1989 Album LIGHTS, ACTION, CAMERA, REVOLUTION)

Transcribed by erikthestupid@hotmail.com
	

Words by Mike Muir Music by Suicidal Tendencies

Gtr I (E A D G B E) - 'Guitar 1'
Gtr II (E A D G B E) - 'Guitar 2'

 Intro
  Q=100
  A5
 4/4
  Gtr I
  W          S S S S S S S S S S S S S S S S
|----------|---------------------------------|
|----------|---------------------------------|
|----------|---------------------------------|
|-7--------|-8-7-5---5-----------------------|
|-7--------|-------8---8-7-5-8-7-5---5-------|
|-5--------|-----------------------8---8-6-5-|
|
| Gtr II
| W          W
|----------|---------------------------------|
|----------|---------------------------------|
|----------|---------------------------------|
|----------|---------------------------------|
|----------|---------------------------------|
|----------|---------------------------------|


  A5
   W            S  S S S S S S S  S     S S S S S S S
|-----------|-------------------------------------------|
|-----------|-------------------------------------------|
|-----------|-------------------------------------------|
|--7--------|---8--7-5---5------------------------------|
|--7--------|----------8---8-7-5--8-----7-5---5---------|
|--5--------|-------------------------------8---8-6-5---|
|
|  ~~~~~~~~~~~~~~~~
|  W           +H                 H
|-17--------|-(17)---------------15b16==================|
|-----------|-------------------------------------------|
|-----------|-------------------------------------------|
|-----------|-------------------------------------------|
|-----------|-------------------------------------------|
|-----------|-------------------------------------------|


  A5
    W             S  S S S S S S S S S S S S S S S
|-------------|------------------------------------|
|-------------|------------------------------------|
|-------------|------------------------------------|
|---7---------|---8--7-5---5-----------------------|
|---7---------|----------8---8-7-5-8-7-5---5-------|
|---5---------|--------------------------8---8-6-5-|
|
|  +W            +W
|-(15)--------|-(15)-------------------------------|
|-------------|------------------------------------|
|-------------|------------------------------------|
|-------------|------------------------------------|
|-------------|------------------------------------|
|-------------|------------------------------------|


  A5
   W                E  S S S S S S S S S S S S S S
|---------------|----------------------------------|
|---------------|----------------------------------|
|---------------|----------------------------------|
|--7------------|---8--7-5---5---------------------|
|--7------------|----------8---8-7-5-8-7-5---5-----|
|--5------------|--------------------------8---8-6-|
|
|  W               +W
|-23b27=========|=(23)-----------------------------|
|---------------|----------------------------------|
|---------------|----------------------------------|
|---------------|----------------------------------|
|---------------|----------------------------------|
|---------------|----------------------------------|


   Verse 1
    A5
      PM------------------------|
    E S S S S S S S S S S S S S S
||--------------------------------|
||o-------------------------------|
||--------------------------------|
||--7-----------------------------|
||o-7-7-7-7-7-7-7-7-7-7-7-7-7-7-7-|
||--5-5-5-5-5-5-5-5-5-5-5-5-5-5-5-|
|
|     PM------------------------|
|   E S S S S S S S S S S S S S S
||--------------------------------|
||o-------------------------------|
||--------------------------------|
||--7-----------------------------|
||o-7-7-7-7-7-7-7-7-7-7-7-7-7-7-7-|
||--5-5-5-5-5-5-5-5-5-5-5-5-5-5-5-|


   ~~                                        ~~
   E  S  S  S  S  S  S  S  S  S  S  S  S  S  S  3x
|-----------------------------------------------||
|----------------------------------------------o||
|-15-14-12----12--------------------------------||
|----------15----15-14-12-15-14-12----12--------||
|----------------------------------15----15-13-o||
|-----------------------------------------------||
|
|  E  S  S  S  S  S  S  S  S  S  S  S  S  S  S  3x
|-----------------------------------------------||
|----------------------------------------------o||
|-----------------------------------------------||
|--8--7--5-----5--------------------------------||
|-----------8-----8--7--5--8--7--5-----5-------o||
|-----------------------------------8-----8--6--||


  A5
    PM------------------------|
  E S S S S S S S S S S S S S S
|-------------------------------|
|-------------------------------|
|-------------------------------|
|-7-----------------------------|
|-7-7-7-7-7-7-7-7-7-7-7-7-7-7-7-|
|-5-5-5-5-5-5-5-5-5-5-5-5-5-5-5-|
|
|   PM------------------------|
| E S S S S S S S S S S S S S S
|-------------------------------|
|-------------------------------|
|-------------------------------|
|-7-----------------------------|
|-7-7-7-7-7-7-7-7-7-7-7-7-7-7-7-|
|-5-5-5-5-5-5-5-5-5-5-5-5-5-5-5-|


   ~~
   E  S  S  S  S  S  S  S  S  S  S  S  S  S  S
|-----------------------------------------------|
|-----------------------------------------------|
|-15-14-12----15-14-12----15-14-12----12--------|
|----------15----------15----------15----15-14--|
|-----------------------------------------------|
|-----------------------------------------------|
|
|  E  S  S  S  S  S  S  S  S  S  S  S  S  S  S
|-----------------------------------------------|
|-----------------------------------------------|
|-----------------------------------------------|
|--8--7--5-----5--------------------------------|
|-----------8-----8--7--5--8--7--5-----5--------|
|-----------------------------------8-----8--6--|


 Chorus
  E5                              G5
    PM------------|                 PM------------|
  E S S S S S S S S S S S S S S   E S S S S S S S S S S S S S S
|-------------------------------|--------------------------------|
|-------------------------------|--------------------------------|
|-----------------------------7-|-----------------------------7--|
|-2-------------------2-4---4-5-|-5-------------------2-4---4-5--|
|-2-2-2-2-2-2-2-2-2-3-----5-----|-5-5-5-5-5-5-5-5-5-3-----5------|
|-0-0-0-0-0-0-0-0-0-------------|-3-3-3-3-3-3-3-3-3--------------|
|
| H             E   S S S S S S   H             E   S S S S S S
|-------------------------------|--------------------------------|
|-----------------------7-----8-|-----------------------7-----8--|
|-------------------5-7---5-7---|-------------------5-7---5-7----|
|-------------------------------|--------------------------------|
|-------------------------------|--------------------------------|
|-------------------------------|--------------------------------|


  E5                              G5
    PM------------|                 PM--------|   PM
  E S S S S S S S S S S S S S S   E S S S S S S E S S S S S S
|-------------------------------|-----------------------------|
|-------------------------------|-----------------------------|
|-----------------------------7-|---------------------------7-|
|-2-------------------2-4---4-5-|-5-------------3---2-4---4-5-|
|-2-2-2-2-2-2-2-2-2-3-----5-----|-5-5-5-5-5-5-5-3-3-----5-----|
|-0-0-0-0-0-0-0-0-0-------------|-3-3-3-3-3-3-3-1-1-----------|
|
| H             E   S S S S S S   H             E S S S S S S
|-------------------------------|-----------------------------|
|-----------------------7-----8-|---------------------7-----8-|
|-------------------5-7---5-7---|-----------------5-7---5-7---|
|-------------------------------|-----------------------------|
|-------------------------------|-----------------------------|
|-------------------------------|-----------------------------|


  E5                              G5
    PM------------|                 PM------------|
  E S S S S S S S S S S S S S S   E S S S S S S S S S S S S S S
|-------------------------------|--------------------------------|
|-------------------------------|--------------------------------|
|-----------------------------7-|-----------------------------7--|
|-2-------------------2-4---4-5-|-5-------------------2-4---4-5--|
|-2-2-2-2-2-2-2-2-2-3-----5-----|-5-5-5-5-5-5-5-5-5-3-----5------|
|-0-0-0-0-0-0-0-0-0-------------|-3-3-3-3-3-3-3-3-3--------------|
|
| H             E   S S S S S S   H             E   S S S S S S
|-------------------------------|--------------------------------|
|-----------------------7-----8-|-----------------------7-----8--|
|-------------------5-7---5-7---|-------------------5-7---5-7----|
|-------------------------------|--------------------------------|
|-------------------------------|--------------------------------|
|-------------------------------|--------------------------------|


  E5                              G5            F5
  E S S S S S S S S S S S S S S   E S S S S S S E S S S S S S
|-------------------------------|-----------------------------|
|-------------------------------|-----------------------------|
|-----------------------------7-|-----------------------------|
|-2-------------------2-4---4-5-|-5-------------3-------------|
|-2-2-2-2-2-2-2-2-2-3-----5-----|-5-5-5-5-5-5-5-3-3-3-3-3-3-3-|
|-0-0-0-0-0-0-0-0-0-------------|-3-3-3-3-3-3-3-1-1-1-1-1-1-1-|
|
| H             E   S S S S S S   W
|-------------------------------|-----------------------------|
|-----------------------7-----8-|-----------------------------|
|-------------------5-7---5-7---|-----------------------------|
|-------------------------------|-----------------------------|
|-------------------------------|-----------------------------|
|-------------------------------|-----------------------------|


   Interlude
    A5            C5D5              F5   C5          EbBb5
          PM----|     PM--------|        PM--------|   PM--------|
     E    S S S S E E S S S S S S     E  S S S S S S E S S S S S S
||--------------------------------|--------------------------------|
||o-------------------------------|--------------------------------|
||----------------5-7-------------|--10--------------8-------------|
||---7------------5-7-7-7-7-7-7-7-|--10--5-5-5-5-5-5-8-3-3-3-3-3-3-|
||o--7----7-7-7-7-3-5-5-5-5-5-5-5-|---8--3-3-3-3-3-3-6-1-1-1-1-1-1-|
||---5----5-5-5-5-----------------|--------------------------------|
|
|    W                               +W
||--------------------------------|--------------------------------|
||o-------------------------------|--------------------------------|
||--14b15r========================|=(14)---------------------------|
||--------------------------------|--------------------------------|
||o-------------------------------|--------------------------------|
||--------------------------------|--------------------------------|


  A5            C5D5              F5   C5          EbBb5
        PM----|     PM--------|        PM--------|   PM--------|
   E    S S S S E E S S S S S S     E  S S S S S S E S S S S S S     W
|-------------------------------|---------------------------------||------|
|-------------------------------|--------------------------------o||------|
|---------------5-7-------------|--10--------------8--------------||------|
|--7------------5-7-7-7-7-7-7-7-|--10--5-5-5-5-5-5-8--------------||------|
|--7----7-7-7-7-3-5-5-5-5-5-5-5-|---8--3-3-3-3-3-3-6-8-8-8-8-8-8-o||------|
|--5----5-5-5-5-----------------|--------------------6-6-6-6-6-6--||------|
|
|  W                               +W                                W
|-16b17r========================|=(16)----------------------------||------|
|-------------------------------|--------------------------------o||------|
|-------------------------------|---------------------------------||------|
|-------------------------------|---------------------------------||------|
|-------------------------------|--------------------------------o||------|
|-------------------------------|---------------------------------||------|


   Verse 2
    A5        Bb5   G5    A5
    E S S S S S S S S S S S S S S
||--------------------------------|
||o-------------------------------|
||--------------------------------|
||--7---------8-----5-----7-------|
||o-7-7-7-7-7-8-8-8-5-5-5-7-7-7-7-|
||--5-5-5-5-5-6-6-6-3-3-3-5-5-5-5-|
|
|     PM----|               PM--|
|   E S S S S S S S S E   S S S S
||--------------------------------|
||o-------------------------------|
||--------------------------------|
||--7---------8-----5-----7-------|
||o-7-7-7-7-7-8-----5-----7-7-7-7-|
||--5-5-5-5-5-6-----3-----5-5-5-5-|


   ~~                                        ~~
   E  S  S  S  S  S  S  S  S  S  S  S  S  S  S  3x
|-----------------------------------------------||
|----------------------------------------------o||
|-15-14-12----12--------------------------------||
|----------15----15-14-12-15-14-12----12--------||
|----------------------------------15----15-13-o||
|-----------------------------------------------||
|
|  E  S  S  S  S  S  S  S  S  S  S  S  S  S  S  3x
|-----------------------------------------------||
|----------------------------------------------o||
|-----------------------------------------------||
|--8--7--5-----5--------------------------------||
|-----------8-----8--7--5--8--7--5-----5-------o||
|-----------------------------------8-----8--6--||


  A5        Bb5   G5    A5
    PM----|   PM|   PM|   PM--|
  E S S S S S S S S S S S S S S
|-------------------------------|
|-------------------------------|
|-------------------------------|
|-7---------8-----5-----7-------|
|-7-7-7-7-7-8-8-8-5-5-5-7-7-7-7-|
|-5-5-5-5-5-6-6-6-3-3-3-5-5-5-5-|
|
|   PM----|               PM--|
| E S S S S S S S S E   S S S S
|-------------------------------|
|-------------------------------|
|-------------------------------|
|-7---------8-----5-----7-------|
|-7-7-7-7-7-8-----5-----7-7-7-7-|
|-5-5-5-5-5-6-----3-----5-5-5-5-|


   ~~
   E  S  S  S  S  S  S  S  S  S  S  S  S  S  S
|-----------------------------------------------|
|-----------------------------------------------|
|-15-14-12----15-14-12----15-14-12----12--------|
|----------15----------15----------15----15-14--|
|-----------------------------------------------|
|-----------------------------------------------|
|
|  E  S  S  S  S  S  S  S  S  S  S  S  S  S  S
|-----------------------------------------------|
|-----------------------------------------------|
|-----------------------------------------------|
|--8--7--5-----5--------------------------------|
|-----------8-----8--7--5--8--7--5-----5--------|
|-----------------------------------8-----8--6--|


 Chorus
  E5                              G5
    PM------------|                 PM------------|
  E S S S S S S S S S S S S S S   E S S S S S S S S S S S S S S
|-------------------------------|--------------------------------|
|-------------------------------|--------------------------------|
|-----------------------------7-|-----------------------------7--|
|-2-------------------2-4---4-5-|-5-------------------2-4---4-5--|
|-2-2-2-2-2-2-2-2-2-3-----5-----|-5-5-5-5-5-5-5-5-5-3-----5------|
|-0-0-0-0-0-0-0-0-0-------------|-3-3-3-3-3-3-3-3-3--------------|
|
| H             E   S S S S S S   H             E   S S S S S S
|-------------------------------|--------------------------------|
|-----------------------7-----8-|-----------------------7-----8--|
|-------------------5-7---5-7---|-------------------5-7---5-7----|
|-------------------------------|--------------------------------|
|-------------------------------|--------------------------------|
|-------------------------------|--------------------------------|


  E5                              G5
    PM------------|                 PM--------|   PM
  E S S S S S S S S S S S S S S   E S S S S S S E S S S S S S
|-------------------------------|-----------------------------|
|-------------------------------|-----------------------------|
|-----------------------------7-|---------------------------7-|
|-2-------------------2-4---4-5-|-5-------------3---2-4---4-5-|
|-2-2-2-2-2-2-2-2-2-3-----5-----|-5-5-5-5-5-5-5-3-3-----5-----|
|-0-0-0-0-0-0-0-0-0-------------|-3-3-3-3-3-3-3-1-1-----------|
|
| H             E   S S S S S S   H             E S S S S S S
|-------------------------------|-----------------------------|
|-----------------------7-----8-|---------------------7-----8-|
|-------------------5-7---5-7---|-----------------5-7---5-7---|
|-------------------------------|-----------------------------|
|-------------------------------|-----------------------------|
|-------------------------------|-----------------------------|


  E5                              G5
    PM------------|                 PM------------|
  E S S S S S S S S S S S S S S   E S S S S S S S S S S S S S S
|-------------------------------|--------------------------------|
|-------------------------------|--------------------------------|
|-----------------------------7-|-----------------------------7--|
|-2-------------------2-4---4-5-|-5-------------------2-4---4-5--|
|-2-2-2-2-2-2-2-2-2-3-----5-----|-5-5-5-5-5-5-5-5-5-3-----5------|
|-0-0-0-0-0-0-0-0-0-------------|-3-3-3-3-3-3-3-3-3--------------|
|
| H             E   S S S S S S   H             E   S S S S S S
|-------------------------------|--------------------------------|
|-----------------------7-----8-|-----------------------7-----8--|
|-------------------5-7---5-7---|-------------------5-7---5-7----|
|-------------------------------|--------------------------------|
|-------------------------------|--------------------------------|
|-------------------------------|--------------------------------|


  E5                              G5            F5
    PM------------|                 PM--------|   PM--------|
  E S S S S S S S S S S S S S S   E S S S S S S E S S S S S S
|-------------------------------|-----------------------------|
|-------------------------------|-----------------------------|
|-----------------------------7-|-----------------------------|
|-2-------------------2-4---4-5-|-5-------------3-------------|
|-2-2-2-2-2-2-2-2-2-3-----5-----|-5-5-5-5-5-5-5-3-3-3-3-3-3-3-|
|-0-0-0-0-0-0-0-0-0-------------|-3-3-3-3-3-3-3-1-1-1-1-1-1-1-|
|
| H             E   S S S S S S   W
|-------------------------------|-----------------------------|
|-----------------------7-----8-|-----------------------------|
|-------------------5-7---5-7---|-----------------------------|
|-------------------------------|-----------------------------|
|-------------------------------|-----------------------------|
|-------------------------------|-----------------------------|


 Guitar Solo
  A5
            PM-------------------------------------|
   E        S     S     S     S     S     S    S    S    S     S     S    S     S    S
|------------------------------------------------------------------------------------------|
|------------------------------------------------------------------------------------------|
|------------------------------------------------------------------------------------------|
|--7---------------------------------------------------------------------------------------|
|--7--------7-----7-----7-----7-----7-----7----7----7----8-----7-----5----------5----------|
|--5--------5-----5-----5-----5-----5-----5----5----5---------------------8----------8-----|
|
|  S  T  T  T  T  T  T  T  T  T  T  T  T  T T  T T  T T  T  T  T  T  T  T T  T  T T  T  T
|-------------10---------------------------------------------------------------------------|
|-10-12-13-10----10-12-13-10-10------------------------------------------------------------|
|-------------------------------12-10-12-10-9----9----9------------------------------------|
|---------------------------------------------12---12---12-10-12-10------------------------|
|-------------------------------------------------------------------12-10-9-12-10-9-12-12--|
|------------------------------------------------------------------------------------------|


  B5
        PM---------------|
   E    S S S S  S  S  S  S  S S   S  S S S
|-------------------------------------------|
|-------------------------------------------|
|-------------------------------------------|
|--9----------------------------------------|
|--9----9-9-9-9--9--9--9--9--8-7---5----5---|
|--7----7-7-7-7--7--7--7--7-----------8---8-|
|
|  ~~~~~                  ~~~~~~~~~~~~
|  Q.            S  S  S  E.      +Q
|-12b13-------------------------------------|
|-------------------------------------------|
|---------------12--------------------------|
|------------------14-----------------------|
|---------------------12-15------(15)-------|
|-------------------------------------------|


  Bb5
               PM---------------------------------------|
   E           S     S     S     S     S     S     S    S  S S  S S S  S
|------------------------------------------------------------------------|
|------------------------------------------------------------------------|
|------------------------------------------------------------------------|
|--8---------------------------------------------------------------------|
|--8-----------8-----8-----8-----------8-----8-----8----8--8-7--5---5----|
|--6-----------6-----6-----6-----6-----6-----6-----6----6---------8----8-|
|
|                                                                 ~
|  T  T  T  T  T  T  T  T  T  T  T  T  T  T  T  T  E       S S  S E    S
|------------------------------------------------------------------------|
|------------------------------------------------------------------------|
|-------------------------------------------------12b13---11-9-11-9------|
|-10-12-13-12-10-12-13-12-10-12-13-12-10-12-13-12---------------------12-|
|------------------------------------------------------------------------|
|------------------------------------------------------------------------|


  A5             C5
      PM------|
   E  S  S  S  S S  S  S S  S  S  S S S S
|-----------------------------------------|
|-----------------------------------------|
|-----------------------------------------|
|--7-------------5--x--x-5--x--x--5-x-5-x-|
|--7--7--7--7--7-3--x--x-3--x--x--3-x-3-x-|
|--5--5--5--5--5--------------------------|
|
|  ~~          ~~      ~~
|  E  S  S  S  E    S  E    S  S  Q
|-----------------------------------------|
|-----------------------------------------|
|-----------------------------------------|
|-13-12-10-12-10---12-13---12-10-12-------|
|-----------------------------------------|
|-----------------------------------------|


  A5          C5
      PM----|
   E  S S S S  S S  S    S S  S  S  S  S  S
|--------------------------------------------|
|--------------------------------------------|
|--------------------------------------------|
|--7-----------5-x--x----5-x--x--5--x--5--x--|
|--7--7-7-7-7--3-x--x----3-x--x--3--x--3--x--|
|--5--5-5-5-5--------------------------------|
|
|  ~~~
|  Q.          E    E.        S  S  S  S  S
|--------------------------------------------|
|--------------------------------------------|
|--------------------------------------------|
|------------------12b13r====12-------12-----|
|-12----------15----------------15-14----15--|
|--------------------------------------------|


  B5
               PM---------------------------------------|
   E           S     S     S     S     S     S     S     S     S     S     S     S     S     S
|-------------------------------------------------------------------------------------------------|
|-------------------------------------------------------------------------------------------------|
|--4----------------------------------------------------------------------------------------------|
|--4-----------4-----4-----4-----4-----4-----4-----4-----4----------------------------------------|
|--2-----------2-----2-----2-----2-----2-----2-----2-----2-----8-----7-----5-----------5----------|
|--------------------------------------------------------------------------------8-----------8----|
|
|  T  T  T  T  T  T  T  T  T  T  T  T  T  T  T  T  T  T  T  T  T  T  T  T  T  T  T  T  T  T  T  T
|-------------------------------------------------------------------------------------------------|
|-12-13-15-13-12-13-16-13-12-13-15-13-12-13-15-13-12-13-15----------------------------15-17-15-17-|
|-------------------------------------------------------------------------14-16-17-16-------------|
|----------------------------------------------------------14----14----14-------------------------|
|-------------------------------------------------------------17----17----------------------------|
|-------------------------------------------------------------------------------------------------|


  Bb5
        PM------------|
   E    S S S S S S S S S S S  S  S  S
|--------------------------------------|
|--------------------------------------|
|--------------------------------------|
|--8-----------------------------------|
|--8----8-8-8-8-8-8-8-8-8-7-5-----5----|
|--6----6-6-6-6-6-6-6-6--------8-----8-|
|
|  ~~~~~
|  H.                       S  S  S  S
|-23b24-----------------------17-19-20-|
|--------------------------------------|
|--------------------------------------|
|--------------------------------------|
|--------------------------------------|
|--------------------------------------|


  A5                 C5
          PM------|
   E      S  S  S  S  S  S  S S S S S S S S
|--------------------------------------------|
|--------------------------------------------|
|--------------------------------------------|
|--7------------------5--x--x-5-x-x-5-x-5-x--|
|--7------7--7--7--7--3--x--x-3-x-x-3-x-3-x--|
|--5------5--5--5--5-------------------------|
|
|                           ~~
|  E.        S  S  S  S  S  H
|-20b21.5---17----17-------17----------------|
|--------------20----20-17-------------------|
|--------------------------------------------|
|--------------------------------------------|
|--------------------------------------------|
|--------------------------------------------|


  E5
      PM------------------|
   E  S  S  S  S  S  S  S S  S  S  S  S  S  S
|---------------------------------------------|
|---------------------------------------------|
|---------------------------------------------|
|--2------------------------------------------|
|--2--2--2--2--2--2--2--2-2--3--2--0-----0----|
|--0--0--0--0--0--0--0--0-0-----------3-----3-|
|
|  ~~                   ~~
|  E  S  S  S  S  S  S  E    S  S  S  S  S  S
|-15----15-------------15------15-------------|
|----17----17-15------------17----17-15-------|
|----------------16-14------------------16-14-|
|---------------------------------------------|
|---------------------------------------------|
|---------------------------------------------|


  F#5
      PM------------|
   E  S S S S S S S S S S  S     S     S     S
|-------------------------------------------------|
|-------------------------------------------------|
|-------------------------------------------------|
|--4----------------------------------------------|
|--4--4-4-4-4-4-4-4-4-3-2--0-----------0----------|
|--2--2-2-2-2-2-2-2-2------------3-----------3----|
|
|  ~~~
|  H.                      T  T  T  T  T  T  T  T
|----------------------------------12-13-15-13-12-|
|-12----------------------12-14-15----------------|
|-------------------------------------------------|
|-------------------------------------------------|
|-------------------------------------------------|
|-------------------------------------------------|


  F5
      PM-----------------|
   E  S  S  S  S  S S  S S  S     S     S     S     S     S
|--------------------------------------------------------------|
|--------------------------------------------------------------|
|--------------------------------------------------------------|
|--3-----------------------------------------------------------|
|--3--3--3--3--3--3-3--3-3--3-----2-----0-----------0----------|
|--1--1--1--1--1--1-1--1-1--------------------3-----------3----|
|
|  ~~          ~~~
|  E  S  S  S  E.      E    T  T  T  T  T  T  T  T  T  T  T  T
|-----------------------------------12-13-15-13-12-13-15-13-12-|
|-15-12----12---------15---12-14-15----------------------------|
|-------14----14-----------------------------------------------|
|--------------------------------------------------------------|
|--------------------------------------------------------------|
|--------------------------------------------------------------|


  E5
               PM---------------|
   E           S     S     S     S     S     S     S     S     S     S     S     S     S     S
|-------------------------------------------------------------------------------------------------|
|-------------------------------------------------------------------------------------------------|
|-------------------------------------------------------------------------------------------------|
|--2----------------------------------------------------------------------------------------------|
|--2-----------2-----2-----2-----2-----5-----x-----x-----5-----x-----x-----5-----x-----5-----x----|
|--0-----------0-----0-----0-----0-----3-----x-----x-----3-----x-----x-----3-----x-----3-----x----|
|
|  T  T  T  T  T  T  T  T  T  T  T  T  T  T  T  T  T  T  T  T  T  T  T  T  T  T  T  T  T  T  T  T
|----------------------------------------12-13-15-13-12-13-15-13-12-13-15-------------------------|
|-15-12-14-15-14-12-14-15-12-14-15-14-12----------------------------------15-12-14-15-14-13-14-15-|
|-------------------------------------------------------------------------------------------------|
|-------------------------------------------------------------------------------------------------|
|-------------------------------------------------------------------------------------------------|
|-------------------------------------------------------------------------------------------------|


  E5
               PM---------------|
   E           S     S     S     S     S     S     S     S     S     S     S     S     S     S
|-------------------------------------------------------------------------------------------------|
|-------------------------------------------------------------------------------------------------|
|-------------------------------------------------------------------------------------------------|
|--2----------------------------------------------------------------------------------------------|
|--2-----------2-----2-----2-----2-----5-----x-----x-----5-----x-----x-----5-----x-----5-----x----|
|--0-----------0-----0-----0-----0-----3-----x-----x-----3-----x-----x-----3-----x-----3-----x----|
|
|  T  T  T  T  T  T  T  T  T  T  T  T  T  T  T  T  T  T  T  T  T  T  T  T  T  T  T  T  T  T  T  T
|-12h13h15p13-12h13h15p13-12h13h15p13-12h13h15p13-12h13h15p13-12h13h15p13-12h13h15p13-12h13h15p13-|
|-------------------------------------------------------------------------------------------------|
|-------------------------------------------------------------------------------------------------|
|-------------------------------------------------------------------------------------------------|
|-------------------------------------------------------------------------------------------------|
|-------------------------------------------------------------------------------------------------|


  F#5
               PM---------------------------------------|
   E           S     S     S     S     S     S     S     S     S     S     S     S     S     S
|-------------------------------------------------------------------------------------------------|
|-------------------------------------------------------------------------------------------------|
|-------------------------------------------------------------------------------------------------|
|--4----------------------------------------------------------------------------------------------|
|--4-----------4-----4-----4-----4-----4-----4-----4-----4-----3-----2-----0-----------0----------|
|--2-----------2-----2-----2-----2-----2-----2-----2-----2-----------------------3-----------3----|
|
|  T  T  T  T  T  T  T  T  T  T  T  T  T  T  T  T  T  T  T  T  T  T  T  T  T  T  T  T  T  T  T  T
|-11h12h14-11h12h14-11h12h14-11h12h14-11h12h14-11h12h14-11h12h14-11h12h14-11h12h14-11h12h14-11h12-|
|-------------------------------------------------------------------------------------------------|
|-------------------------------------------------------------------------------------------------|
|-------------------------------------------------------------------------------------------------|
|-------------------------------------------------------------------------------------------------|
|-------------------------------------------------------------------------------------------------|


  F5                                  E5
        PM------------|                      PM----|
   E    S S S S S S S S S S S S S S    E     S S S S S S S S S S S S S S
|-----------------------------------|-------------------------------------|
|-----------------------------------|-------------------------------------|
|-----------------------------------|-------------------------------------|
|--3--------------------------------|--2----------------------------------|
|--3----3-3-3-3-3-3-3-3-3-2-0---0---|--2-----2-2-2-2-5-x-x-5-x-x-5-x-5-x--|
|--1----1-1-1-1-1-1-1-1-------3---3-|--0-----0-0-0-0-3-x-x-3-x-x-3-x-3-x--|
|
|  W                                   W
|-12b14-----------------------------|-23b25===============================|
|-----------------------------------|-------------------------------------|
|-----------------------------------|-------------------------------------|
|-----------------------------------|-------------------------------------|
|-----------------------------------|-------------------------------------|
|-----------------------------------|-------------------------------------|


  A5           C5D5              F5               EbBb5
       PM----|     PM--------|        PM--------|   PM--------|
    E  S S S S E E S S S S S S     E  S S S S S S E S S S S S S
|------------------------------|--------------------------------|
|------------------------------|--------------------------------|
|--------------5-7-------------|--10--------------8-------------|
|---7----------5-7-7-7-7-7-7-7-|--10--5-5-5-5-5-5-8-------------|
|---7--7-7-7-7-3-5-5-5-5-5-5-5-|---8--3-3-3-3-3-3-6-8-8-8-8-8-8-|
|---5--5-5-5-5-----------------|--------------------6-6-6-6-6-6-|
|
|  +W                             +W
|-(23)-------------------------|-(23)---------------------------|
|------------------------------|--------------------------------|
|------------------------------|--------------------------------|
|------------------------------|--------------------------------|
|------------------------------|--------------------------------|
|------------------------------|--------------------------------|


  A5            C5D5              F5   C5          EbBb5
        PM----|     PM--------|        PM--------|   PM--------|
   E    S S S S E E S S S S S S     E  S S S S S S E S S S S S S
|-------------------------------|--------------------------------|
|-------------------------------|--------------------------------|
|---------------5-7-------------|--10--------------8-------------|
|--7------------5-7-7-7-7-7-7-7-|--10--5-5-5-5-5-5-8-------------|
|--7----7-7-7-7-3-5-5-5-5-5-5-5-|---8--3-3-3-3-3-3-6-8-8-8-8-8-8-|
|--5----5-5-5-5-----------------|--------------------6-6-6-6-6-6-|
|
|  W                               +W
|-------------------------------|--------------------------------|
|-------------------------------|--------------------------------|
|-14b15-------------------------|-(14)---------------------------|
|-------------------------------|--------------------------------|
|-------------------------------|--------------------------------|
|-------------------------------|--------------------------------|


  A5                C5D5                 F5                 EbBb5
         PM-------|        PM--------|          PM--------|   PM--------|
   E     S S   S  S E   E  S S S S S S    E     S S S S S S E S S S S S S
|--------------------------------------|----------------------------------|
|--------------------------------------|----------------------------------|
|-------------------5---7--------------|-10-----------------8-------------|
|--7----------------5---7--7-7-7-7-7-7-|-10-----5-5-5-5-5-5-8-3-3-3-3-3-3-|
|--7-----7-7---7--7-3---5--5-5-5-5-5-5-|--8-----3-3-3-3-3-3-6-1-1-1-1-1-1-|
|--5-----5-5---5--5--------------------|----------------------------------|
|
|  E     E    +Q       +H                 W
|--------------------------------------|-23b24============================|
|--------------------------------------|----------------------------------|
|--------------------------------------|----------------------------------|
|-15b16r14---(14)-----(14)-------------|----------------------------------|
|--------------------------------------|----------------------------------|
|--------------------------------------|----------------------------------|


  A5           C5D5
       PM----|     PM--------|
    E  S S S S E E S S S S S S
|------------------------------|
|------------------------------|
|--------------5-7-------------|
|---7----------5-7-7-7-7-7-7-7-|
|---7--7-7-7-7-3-5-5-5-5-5-5-5-|
|---5--5-5-5-5-----------------|
|
|  +W
|-(23)-------------------------|
|------------------------------|
|------------------------------|
|------------------------------|
|------------------------------|
|------------------------------|


  F5 C5          Eb5         Bb5
     PM--------|
   E S S S S S S  E           S     S   S   S   S   S      W
|--------------------------------------------------------|------|
|--------------------------------------------------------|------|
|-10--------------8--------------------------------------|------|
|-10-5-5-5-5-5-5--8--------------------------------------|------|
|--8-3-3-3-3-3-3--6-----------8-----8---8---8---8---8----|------|
|-----------------------------6-----6---6---6---6---6----|------|
|
|  H              T  T  T  T  T  T  T T T T T T T T T T    W
|--------------------------------------------------------|------|
|--------------------------------------------------------|------|
|--------------------------------------------------------|------|
|--------------------------------------------------------|------|
|--------------------------------------------------------|------|
|----------------16-15-14-13-12-11-10-9-8-7-6-5-4-3-2-1\-|------|


   Verse 3
    A5        BbBb5 G5G5  A5
      PM----|   PM|   PM|   PM--|
    E S S S S S S S S S S S S S S
||--------------------------------|
||o-------------------------------|
||--------------------------------|
||--7---------8-----5-----7-------|
||o-7-7-7-7-7-8-8-8-5-5-5-7-7-7-7-|
||--5-5-5-5-5-6-6-6-3-3-3-5-5-5-5-|
|
|     PM----|               PM--|
|   E S S S S S S S S E   S S S S
||--------------------------------|
||o-------------------------------|
||--------------------------------|
||--7---------8-----5-----7-------|
||o-7-7-7-7-7-8-----5-----7-7-7-7-|
||--5-5-5-5-5-6-----3-----5-5-5-5-|


   ~~                                        ~~
   E  S  S  S  S  S  S  S  S  S  S  S  S  S  S  3x
|-----------------------------------------------||
|----------------------------------------------o||
|-15-14-12----12--------------------------------||
|----------15----15-14-12-15-14-12----12--------||
|----------------------------------15----15-13-o||
|-----------------------------------------------||
|
|  E  S  S  S  S  S  S  S  S  S  S  S  S  S  S  3x
|-----------------------------------------------||
|----------------------------------------------o||
|-----------------------------------------------||
|--8--7--5-----5--------------------------------||
|-----------8-----8--7--5--8--7--5-----5-------o||
|-----------------------------------8-----8--6--||


  A5        Bb5   G5    A5
    PM----|   PM|   PM|   PM--|
  E S S S S S S S S S S S S S S
|-------------------------------|
|-------------------------------|
|-------------------------------|
|-7---------8-----5-----7-------|
|-7-7-7-7-7-8-8-8-5-5-5-7-7-7-7-|
|-5-5-5-5-5-6-6-6-3-3-3-5-5-5-5-|
|
|   PM----|               PM--|
| E S S S S S S S S E   S S S S
|-------------------------------|
|-------------------------------|
|-------------------------------|
|-7---------8-----5-----7-------|
|-7-7-7-7-7-8-----5-----7-7-7-7-|
|-5-5-5-5-5-6-----3-----5-5-5-5-|


   ~~
   E  S  S  S  S  S  S  S  S  S  S  S  S  S  S
|-----------------------------------------------|
|-----------------------------------------------|
|-15-14-12----15-14-12----15-14-12----12--------|
|----------15----------15----------15----15-14--|
|-----------------------------------------------|
|-----------------------------------------------|
|
|  E  S  S  S  S  S  S  S  S  S  S  S  S  S  S
|-----------------------------------------------|
|-----------------------------------------------|
|-----------------------------------------------|
|--8--7--5-----5--------------------------------|
|-----------8-----8--7--5--8--7--5-----5--------|
|-----------------------------------8-----8--6--|


 Chorus
  E5                              G5
    PM------------|                 PM------------|
  E S S S S S S S S S S S S S S   E S S S S S S S S S S S S S S
|-------------------------------|--------------------------------|
|-------------------------------|--------------------------------|
|-----------------------------7-|-----------------------------7--|
|-2-------------------2-4---4-5-|-5-------------------2-4---4-5--|
|-2-2-2-2-2-2-2-2-2-3-----5-----|-5-5-5-5-5-5-5-5-5-3-----5------|
|-0-0-0-0-0-0-0-0-0-------------|-3-3-3-3-3-3-3-3-3--------------|
|
| H             E   S S S S S S   H             E   S S S S S S
|-------------------------------|--------------------------------|
|-----------------------7-----8-|-----------------------7-----8--|
|-------------------5-7---5-7---|-------------------5-7---5-7----|
|-------------------------------|--------------------------------|
|-------------------------------|--------------------------------|
|-------------------------------|--------------------------------|


  E5                              G5
    PM------------|                 PM--------|   PM
  E S S S S S S S S S S S S S S   E S S S S S S E S S S S S S
|-------------------------------|-----------------------------|
|-------------------------------|-----------------------------|
|-----------------------------7-|---------------------------7-|
|-2-------------------2-4---4-5-|-5-------------3---2-4---4-5-|
|-2-2-2-2-2-2-2-2-2-3-----5-----|-5-5-5-5-5-5-5-3-3-----5-----|
|-0-0-0-0-0-0-0-0-0-------------|-3-3-3-3-3-3-3-1-1-----------|
|
| H             E   S S S S S S   H             E S S S S S S
|-------------------------------|-----------------------------|
|-----------------------7-----8-|---------------------7-----8-|
|-------------------5-7---5-7---|-----------------5-7---5-7---|
|-------------------------------|-----------------------------|
|-------------------------------|-----------------------------|
|-------------------------------|-----------------------------|


  E5                              G5
    PM------------|                 PM------------|
  E S S S S S S S S S S S S S S   E S S S S S S S S S S S S S S
|-------------------------------|--------------------------------|
|-------------------------------|--------------------------------|
|-----------------------------7-|-----------------------------7--|
|-2-------------------2-4---4-5-|-5-------------------2-4---4-5--|
|-2-2-2-2-2-2-2-2-2-3-----5-----|-5-5-5-5-5-5-5-5-5-3-----5------|
|-0-0-0-0-0-0-0-0-0-------------|-3-3-3-3-3-3-3-3-3--------------|
|
| H             E   S S S S S S   H             E   S S S S S S
|-------------------------------|--------------------------------|
|-----------------------7-----8-|-----------------------7-----8--|
|-------------------5-7---5-7---|-------------------5-7---5-7----|
|-------------------------------|--------------------------------|
|-------------------------------|--------------------------------|
|-------------------------------|--------------------------------|


  E5                              G5            F5
    PM------------|
  E S S S S S S S S S S S S S S   E S S S S S S E S S S S S S
|-------------------------------|-----------------------------|
|-------------------------------|-----------------------------|
|-----------------------------7-|-----------------------------|
|-2-------------------2-4---4-5-|-5-------------3-------------|
|-2-2-2-2-2-2-2-2-2-3-----5-----|-5-5-5-5-5-5-5-3-3-3-3-3-3-3-|
|-0-0-0-0-0-0-0-0-0-------------|-3-3-3-3-3-3-3-1-1-1-1-1-1-1-|
|
| H             E   S S S S S S   W
|-------------------------------|-----------------------------|
|-----------------------7-----8-|-----------------------------|
|-------------------5-7---5-7---|-----------------------------|
|-------------------------------|-----------------------------|
|-------------------------------|-----------------------------|
|-------------------------------|-----------------------------|


  A5
  W          S S S S S S S S S S S S S S S S
|----------|---------------------------------|
|----------|---------------------------------|
|----------|---------------------------------|
|-7--------|-8-7-5---5-----------------------|
|-7--------|-------8---8-7-5-8-7-5---5-------|
|-5--------|-----------------------8---8-6-5-|


  A5
   W            S  S S S S S S S  S    S S S S S S S
|-----------|----------------------------------------|
|-----------|----------------------------------------|
|-----------|----------------------------------------|
|--7--------|---8--7-5---5---------------------------|
|--7--------|----------8---8-7-5--8----7-5---5-------|
|--5--------|------------------------------8---8-6-5-|
|
| Gtr II
|  ~~~~~~~~~~~~~~~~
|  W           +H                 H
|-17--------|-(17)---------------15b16---------------|
|-----------|----------------------------------------|
|-----------|----------------------------------------|
|-----------|----------------------------------------|
|-----------|----------------------------------------|
|-----------|----------------------------------------|


  A5
    W             S  S S S S S S S S S S S S S S S
|-------------|------------------------------------|
|-------------|------------------------------------|
|-------------|------------------------------------|
|---7---------|---8--7-5---5-----------------------|
|---7---------|----------8---8-7-5-8-7-5---5-------|
|---5---------|--------------------------8---8-6-5-|
|
|  +W            +W
|-(15)--------|-(15)-------------------------------|
|-------------|------------------------------------|
|-------------|------------------------------------|
|-------------|------------------------------------|
|-------------|------------------------------------|
|-------------|------------------------------------|


  A5
   W               S  S S S S S S S S S S S S S S S
|--------------|------------------------------------|
|--------------|------------------------------------|
|--------------|------------------------------------|
|--7-----------|---8--7-5---5-----------------------|
|--7-----------|----------8---8-7-5-8-7-5---5-------|
|--5-----------|--------------------------8---8-6-5-|
|
|  W              +W
|-23b27--------|-(23)-------------------------------|
|--------------|------------------------------------|
|--------------|------------------------------------|
|--------------|------------------------------------|
|--------------|------------------------------------|
|--------------|------------------------------------|


 Verse 4
  A5
    PM------------------------|
  E S S S S S S S S S S S S S S
|-------------------------------|
|-------------------------------|
|-------------------------------|
|-7-----------------------------|
|-7-7-7-7-7-7-7-7-7-7-7-7-7-7-7-|
|-5-5-5-5-5-5-5-5-5-5-5-5-5-5-5-|
|
|   PM------------------------|
| E S S S S S S S S S S S S S S
|-------------------------------|
|-------------------------------|
|-------------------------------|
|-7-----------------------------|
|-7-7-7-7-7-7-7-7-7-7-7-7-7-7-7-|
|-5-5-5-5-5-5-5-5-5-5-5-5-5-5-5-|


   E     S  S     S  S     S  S  S       S  S  S     S  S       S  S
|---------------------------------------------------------------------|
|---------------------------------------------------------------------|
|-15----14-12-------12------------------------------------------------|
|----------------15-------15-14-12------15-14-12-------12-------------|
|---------------------------------------------------15---------15-13--|
|---------------------------------------------------------------------|
|
|  E.       E        E.          E.            E        E.
|---------------------------------------------------------------------|
|-12b15r===12b15r===12b16r======12b15.5r======12b15r===12b16.5--------|
|---------------------------------------------------------------------|
|---------------------------------------------------------------------|
|---------------------------------------------------------------------|
|---------------------------------------------------------------------|


    A5
      PM------------------------|
    E S S S S S S S S S S S S S S    E     S  S  S  S  S  S  S  S  S  S  S  S  S  S
||--------------------------------|--------------------------------------------------||
||o-------------------------------|-------------------------------------------------o||
||--------------------------------|-15----14-12----12--------------------------------||
||--7-----------------------------|-------------15----15-14-12-15-14-12----12--------||
||o-7-7-7-7-7-7-7-7-7-7-7-7-7-7-7-|-------------------------------------15----15-13-o||
||--5-5-5-5-5-5-5-5-5-5-5-5-5-5-5-|--------------------------------------------------||
|
|     PM------------------------|
|   E S S S S S S S S S S S S S S    W
||--------------------------------|-23b25--------------------------------------------||
||o-------------------------------|-------------------------------------------------o||
||--------------------------------|--------------------------------------------------||
||--7-----------------------------|--------------------------------------------------||
||o-7-7-7-7-7-7-7-7-7-7-7-7-7-7-7-|-------------------------------------------------o||
||--5-5-5-5-5-5-5-5-5-5-5-5-5-5-5-|--------------------------------------------------||


  A5
    PM------------------------|
  E S S S S S S S S S S S S S S
|----------------------------------|
|----------------------------------|
|----------------------------------|
|-7--------------------------------|
|-7-7-7-7-7-7-7-7-7-7-7-7-7-7-7----|
|-5-5-5-5-5-5-5-5-5-5-5-5-5-5-5----|
|
|   PM------------------------|
| E S S S S S S S S S S S S S S
|----------------------------------|
|----------------------------------|
|----------------------------------|
|-7--------------------------------|
|-7-7-7-7-7-7-7-7-7-7-7-7-7-7-7----|
|-5-5-5-5-5-5-5-5-5-5-5-5-5-5-5----|


   E        S     S     S     S     S     S    S    S    S     S     S     S     S    S
|------------------------------------------------------------------------------------------|
|------------------------------------------------------------------------------------------|
|-15-------14----12----------15----14----12--------15---14----12----------12---------------|
|----------------------15---------------------15--------------------15----------15---14----|
|------------------------------------------------------------------------------------------|
|------------------------------------------------------------------------------------------|
|
|  S  T  T  T  T  T  T  T  T  T  T  T  T  T T  T T  T T  T  T  T  T  T  T  T  T  T T  T  T
|-------------10---------------------------------------------------------------------------|
|-10-12-13-10----10-12-13-10-10------------------------------------------------------------|
|-------------------------------12-10-12-10-9----9----9------------------------------------|
|---------------------------------------------12---12---12-10-12-10------------------------|
|-------------------------------------------------------------------12-10--9-12-10-9-12-12-|
|------------------------------------------------------------------------------------------|


  A5
  E E Q  H
|-------------*|
|-------------*|
|-2-----------*|
|-2-----------*|
|-0-----------*|
|-------------*|
|
| W
|-------------*|
|-------------*|
|-------------*|
|-------------*|
|-------------*|
|-------------*|



Duration Legend
---------------
W - whole; H - half; Q - quarter; E - 8th; S - 16th; T - 32nd; X - 64th; a - acciaccatura
+ - note tied to previous; . - note dotted; .. - note double dotted
Uncapitalized letters represent notes that are staccato (1/2 duration)
Irregular groupings are notated above the duration line
Duration letters will always appear directly above the note/fret number it represents the
duration for.  Duration letters with no fret number below them represent rests.  Multi-
bar rests are notated in the form Wxn, where n is the number of bars to rest for.  Low
melody durations appear below the staff

Tablature Legend
----------------
 h   - hammer-on
 p   - pull-off
 b   - bend
 pb  - pre-bend
 r   - bend release (if no number after the r, then release immediately)
 /\  - slide into or out of (from/to "nowhere")
 s   - legato slide
 S   - shift slide
 - natural harmonic
[n]  - artificial harmonic
n(n) - tapped harmonic
 ~   - vibrato
 tr  - trill
 T   - tap
 TP  - trem. picking
 PM  - palm muting
\n/  - tremolo bar dip; n = amount to dip
 \n  - tremolo bar down
 n/  - tremolo bar up
/n\  - tremolo bar inverted dip
 =   - hold bend; also acts as connecting device for hammers/pulls
 <> - volume swell (louder/softer)
 x   - on rhythm slash represents muted slash
 o   - on rhythm slash represents single note slash

Misc Legend
-----------
 |  - bar
||  - double bar
||o - repeat start
o|| - repeat end
*|  - double bar (ending)
 :  - bar (freetime)
 $  - Segno
 &  - Coda
Tempo markers -  = BPM(8/16=s8/s16), where s8 = swing 8ths, s16 = swing 16ths

Tap to rate this tab
 
# A B C D E F G H I J K L M N O P Q R S T U V W X Y Z