Song name
# A B C D E F G H I J K L M N O P Q R S T U V W X Y Z

Suicide Machines - What I Like About You tab

Hi!

   Very cool solo and song, alought the solo is done originaly on a harmonica (The
i thought it would be cool to tab it on the guitar and i didn't find any other good versions
maybe this one will be ok, no garantee it's the way i do it and it sounds cool and fits, 
for any mistakes Edufourq@gmail.com I broke the solo into several parts, just to
it easier to read and understand, this will give you an idea, maybe you can improve on 
cheers

Standard Tunning

      let ring
E----/14p-13h-14\---------------------|
B------------------15-----------------|
G---------------------14--------------|
D------------------------16-16-14-16\-|
A-------------------------------------|
E-------------------------------------|


E-----------------------|
B-------14-15-15-15-14--|
G---16------------------| x2
D-----------------------|
A-----------------------|
E-----------------------|

    series of hammering and pull offs
E--------------------------------------------------------------------------|
B---14h15p14h15----16h17p16h17-----19----19--17b---------------------------|
G-------------------------------------19------------16-14b-----------------|
D------------------------------------------------------------16-16-14-16\--|
A--------------------------------------------------------------------------|
E--------------------------------------------------------------------------|


E------------------------------------------------------|
B------------------------------------------------------|
G-------------16-16-16---------------------------------|
D----16--19-------------19\--16b-16-16-16b-16--16b-----|
A------------------------------------------------------|
E------------------------------------------------------|

And thats it
Rock on!
Tap to rate this tab
 
# A B C D E F G H I J K L M N O P Q R S T U V W X Y Z