Song name
# A B C D E F G H I J K L M N O P Q R S T U V W X Y Z

Suicide Machines - Hey tab

The Suicide Machines - Hey Ska
Tuning: Standard (EADGBA)

Intro:
(play this until about 0:35)

-------------------------------------------------|
-------------------------------------------------|
-----454-----------------------------------------|
-22--454----5----4-------------------------------|
-22--232----5----4-------------------------------|
-00---------3~~~~2~~~~---------------------------|


(play this until 0:50)
------------------|
------------------|
---------------2--|
---------0-4-2----|
-0-4-7-0----------|
------------------|

Verse:
(play this until about 1:15)

5555--55--77-----------------------------------------------------------------|
5555--77--99-----------------------------------------------------------------|
6666--77--99-----------------------------------------------------------------|
-----------------------------------------------------------------------------|
-----------------------------------------------------------------------------|
-----------------------------------------------------------------------------|

Chorus:
(play this until about 1:25)

5555555555---5555555555---5555555555---7--7--777----------------------------|
7777777777---5555555555---7777777777---9--9--999----------------------------|
7777777777---6666666666---7777777777---9--9--999----------------------------|
----------------------------------------------------------------------------|
----------------------------------------------------------------------------|
----------------------------------------------------------------------------|

Verse:
(play this until about 1:40)

5555--55--77-----------------------------------------------------------------|
5555--77--99-----------------------------------------------------------------|
6666--77--99-----------------------------------------------------------------|
-----------------------------------------------------------------------------|
-----------------------------------------------------------------------------|
-----------------------------------------------------------------------------|

Chorus:
(play until 1:50)

5555555555---5555555555---5555555555---7--7--777----------------------------|
7777777777---5555555555---7777777777---9--9--999----------------------------|
7777777777---6666666666---7777777777---9--9--999----------------------------|
----------------------------------------------------------------------------|
----------------------------------------------------------------------------|
----------------------------------------------------------------------------|

Outro:
(play until about 2:15)

55-55-55-55-----------------------------------------------------------------|
66-66-77-77-----------------------------------------------------------------|
66-66-77-77-----------------------------------------------------------------|
----------------------------------------------------------------------------|
----------------------------------------------------------------------------|
----------------------------------------------------------------------------|

(play until about 2:30)
------------------|
------------------|
---------------2--|
---------0-4-2----|
-0-4-7-0----------|
------------------|


(play until end)
5555--5555-------------------------------------------|
5555--7777-------------------------------------------|
6666--7777-------------------------------------------|
-----------------------------------------------------|
-----------------------------------------------------|
-----------------------------------------------------|
Tap to rate this tab
 
# A B C D E F G H I J K L M N O P Q R S T U V W X Y Z