Song name
# A B C D E F G H I J K L M N O P Q R S T U V W X Y Z

Suicide Machines - What You Say tab

-------------------------------------------------------------------------------
What You Say - The Suicide Machines
Battle Hymns
-------------------------------------------------------------------------------
Tabbed by: axeslash
Email: holmzito@yahoo.com

Tuning: Standard for all guitars
        Guitar 1: Low Volume Overdriven
        Guitar 2: Overdriven
        Guitar 3: Clean

Guitar 1:
e|---------------------------------------------------------------------------------|
B|---------------------------------------------------------------------------------|
G|-9-9-9-9-9-9-9-9-8-8-8-8-9-9-9-9-7-7-9-9-9-9-9-9-9-9-10-10-10-10-9-9-9-9-7-7-7-7-|
D|-9-9-9-9-9-9-9-9-8-8-8-8-9-9-9-9-7-7-9-9-9-9-9-9-9-9-10-10-10-10-9-9-9-9-7-7-7-7-|
A|-7-7-7-7-7-7-7-7-6-6-6-6-7-7-7-7-5-5-7-7-7-7-7-7-7-7--8--8--8--8-7-7-7-7-5-5-5-5-|
E|---------------------------------------------------------------------------------| x2

Guitars 1 & 2:
e|---------------------------------------------------------------------------------|
B|---------------------------------------------------------------------------------|
G|-9-9-9-9-9-9-9-9-8-8-8-8-9-9-9-9-7-7-9-9-9-9-9-9-9-9-10-10-10-10-9-9-9-9-7-7-7-7-|
D|-9-9-9-9-9-9-9-9-8-8-8-8-9-9-9-9-7-7-9-9-9-9-9-9-9-9-10-10-10-10-9-9-9-9-7-7-7-7-|
A|-7-7-7-7-7-7-7-7-6-6-6-6-7-7-7-7-5-5-7-7-7-7-7-7-7-7--8--8--8--8-7-7-7-7-5-5-5-5-|
E|---------------------------------------------------------------------------------| x2

Guitar 3:
e|-X-5-X-5---------X-5-X-5---------X-5-X-5---------X-5-X-5---------|
B|-X-5-X-5-X-7-X-7-X-5-X-5-X-7-X-7-X-5-X-5-X-7-X-7-X-5-X-5-9-9-7-7-|
G|-X-6-X-6-X-7-X-7-X-6-X-6-X-7-X-7-X-6-X-6-X-7-X-7-X-6-X-6-9-9-7-7-|
D|-X-7-X-7-X-7-X-7-X-7-X-7-X-7-X-7-X-7-X-7-X-7-X-7-X-7-X-7-9-9-7-7-|
A|-X-7-X-7-X-5-X-5-X-7-X-7-X-5-X-5-X-7-X-7-X-5-X-5-X-7-X-7-7-7-5-5-|
E|-X-5-X-5---------X-5-X-5---------X-5-X-5---------X-5-X-5---------| x2

Guitars 1 & 2:
e|---------------------------------------------------------------------------------|
B|---------------------------------------------------------------------------------|
G|-9-9-9-9-9-9-9-9-8-8-8-8-9-9-9-9-7-7-9-9-9-9-9-9-9-9-10-10-10-10-9-9-9-9-7-7-7-7-|
D|-9-9-9-9-9-9-9-9-8-8-8-8-9-9-9-9-7-7-9-9-9-9-9-9-9-9-10-10-10-10-9-9-9-9-7-7-7-7-|
A|-7-7-7-7-7-7-7-7-6-6-6-6-7-7-7-7-5-5-7-7-7-7-7-7-7-7--8--8--8--8-7-7-7-7-5-5-5-5-|
E|---------------------------------------------------------------------------------| x2

Guitar 3:
e|-X-5-X-5---------X-5-X-5---------X-5-X-5---------X-5-X-5---------|
B|-X-5-X-5-X-7-X-7-X-5-X-5-X-7-X-7-X-5-X-5-X-7-X-7-X-5-X-5-9-9-7-7-|
G|-X-6-X-6-X-7-X-7-X-6-X-6-X-7-X-7-X-6-X-6-X-7-X-7-X-6-X-6-9-9-7-7-|
D|-X-7-X-7-X-7-X-7-X-7-X-7-X-7-X-7-X-7-X-7-X-7-X-7-X-7-X-7-9-9-7-7-|
A|-X-7-X-7-X-5-X-5-X-7-X-7-X-5-X-5-X-7-X-7-X-5-X-5-X-7-X-7-7-7-5-5-|
E|-X-5-X-5---------X-5-X-5---------X-5-X-5---------X-5-X-5---------| x2

Guitars 1 & 2
e|-----------------------------------------------------------------|
B|-----------------------------------------------------------------|
G|---------------------------------7-7-7-7-7-7-7-7-7-7-7-7-7-7-7-7-|
D|-7-7-7-7-7-7-7-7-5-5-5-5-5-5-5-5-7-7-7-7-7-7-7-7-7-7-7-7-7-7-7-7-|
A|-7-7-7-7-7-7-7-7-5-5-5-5-5-5-5-5-5-5-5-5-5-5-5-5-5-5-5-5-5-5-5-5-|
E|-5-5-5-5-5-5-5-5-3-3-3-3-3-3-3-3---------------------------------| x4

Guitars 1 & 2:
e|---------------------------------------------------------------------------------|
B|---------------------------------------------------------------------------------|
G|-9-9-9-9-9-9-9-9-8-8-8-8-9-9-9-9-7-7-9-9-9-9-9-9-9-9-10-10-10-10-9-9-9-9-7-7-7-7-|
D|-9-9-9-9-9-9-9-9-8-8-8-8-9-9-9-9-7-7-9-9-9-9-9-9-9-9-10-10-10-10-9-9-9-9-7-7-7-7-|
A|-7-7-7-7-7-7-7-7-6-6-6-6-7-7-7-7-5-5-7-7-7-7-7-7-7-7--8--8--8--8-7-7-7-7-5-5-5-5-|
E|---------------------------------------------------------------------------------| x2



| /  slide up
| \  slide down
| h  hammer-on
| p  pull-off
| ~  vibrato
| +  harmonic
| x  Mute note
===============================================================================
Tap to rate this tab
# A B C D E F G H I J K L M N O P Q R S T U V W X Y Z