Guitaretab - guitar tabs
Song name
# A B C D E F G H I J K L M N O P Q R S T U V W X Y Z

Suicide Machines - Smile tab

-------------------------------------------------------------------------------
			     Smile - Suicide Machines
-------------------------------------------------------------------------------
Tabbed by: BarndonH
Email: constantarrogance@gmail.com

Tuning: EADGBe

INTRO:
e|-------------------------------------------------------------------------------|
B|-------------------------------------------------------------------------------|
G|--7-7-7-7-7-7-7-7-7--7-7-7-7-7-7-7-7-7-7---------------------------------------|
D|--7-7-7-7-7-7-7-7-7--7-7-7-7-7-7-7-7-7-7--5-5-5-5-5-5-5-5--7-7-7-7-7-7-7-7-----|
A|--5-5-5-5-5-5-4-5-5--5-5-5-5-5-5-5-4-5-5--5-5-5-5-5-5-5-5--7-7-7-7-7-7-7-7-----|
E|------------------------------------------3-3-3-3-3-3-3-3--5-5-5-5-5-5-5-5-----|
[ Tab from: http://www.guitaretab.com/s/suicide-machines/173914.html ]
VERSE: UPSTROKED NOTES
e|--------------|
B|--------------|
G|--7--12--14---|
D|--7--12--14---|
A|--5--10--12---|
E|--------------|
CHORUS: (WHOAAAAAA PART)
e|--------------|
B|--------------|
G|--------7-----|
D|--5--7--7--9--|
A|--5--7--5--9--|
E|--3--5-----7--|
BREAKDOWN?(HEY, HEY, HEY!)
e|-----------------------------------------------------|
B|-----------------------------------------------------|
G|--7-7-7--7--6-6-6--6--4-4-4--4--2-2-2--2-------------|
D|--7-7-5--7--6-6-6--6--4-4-4--4--2-2-2--2---5--7------|
A|--5-5-5--5--4-4-4--4--2-2-2--2--0-0-0--0---5--7------|
E|-------------------------------------------3--5------|
ENDING
e|----------------------|
B|----------------------|
G|--7--6--4--2----------|
D|--7--6--4--2--5--7----|
A|--5--4--2--0--5--7----|
E|--------------3--5----|
LAST RIFF:
e|---------------------------------------------------------------------------|
B|---------------------------------------------------------------------------|
G|--7-----11--9--7--9--7-----------------------------------------------------|
D|--7-----11--9--7--9--7-----------------------------------------------------|
A|--5------9--7--5--7--5-----------------------------------------------------|
E|---------------------------------------------------------------------------|

| /  slide up
| \  slide down
| h  hammer-on
| p  pull-off
| ~  vibrato
| +  harmonic
| x  Mute note
===============================================================================


Quick draft since I couldn't find one.
missing some fills, and probably a tad off, but it works.

Any fixes e-mail me at constantarrogance@gmail.com

Thanks
Related for Smile tab
Advertisement will be closed in 10 seconds