Song name
# A B C D E F G H I J K L M N O P Q R S T U V W X Y Z

Suicide Machines - Give tab

Intro-
       e---------------|
       B--10---9---7---|
       G---9---9---7---|
       D---7---7---7---|
       A---------------|
       E---------------|

(Jason Starts To Sing)
Verse1 e---5---9---7---9-|
       B---5---9---7---9-|
       G---6---9---7---9-|
       D---7---9---7---9-|
       A-------7---5---7-|
       E-----------------|

Chorus (Does The Same Thing As The Verse except slower)


Verse2 (Same Thing As The Verse1 And The Chorus)


Chorus (Same Thing Again)


Bridge He does the same thing as the verses and choruses but up tempo (listen to the 
for beat) except for the very end of the bridge which is just power chords -

e------------------|
B------------------|
G-------9-------9--|
D---7---9---9---9--|
A---7---7---9---7--|
E---5-------7------|


And Then he just does the same thing as the verses choruses and what not.


Except for the very very very last part where he just goes back and forth between

       e---9---7---9-|
       B---9---7---9-|
       G---9---7---9-|
       D---9---7---9-|
       A---7---5---7-|
       E-------------|

Then ends on 5 (power chord)

uhhh yea this was my first tab uhh let me know how i did
Tap to rate this tab
# A B C D E F G H I J K L M N O P Q R S T U V W X Y Z