Song name
# A B C D E F G H I J K L M N O P Q R S T U V W X Y Z

Suicide Machines - Islands tab

Killer tune.  I've never heard a Suicide Machines song I don't love.

Intro/Post Chours
e---------------------------------------------------------------------------|
B---------------------------------------------------------------------------|
G---10---------------10---8-------------------------------------------------|
D---10---8---10------10---8---8---10----------------------------------------|
A---8----8---10------8----6---8---10----------------------------------------|
E--------6---8----------------6---8-----------------------------------------|

Verse
e---------------------------------------------------------------------------|
B---------------------------------------------------------------------------|
G---10----------------------------------------------------------------------|
D---10---10-----------------------------------------------------------------|
A---8----10-----------------------------------------------------------------|
E--------8------------------------------------------------------------------|

Pre Chorus
"Everybody's tellin' me I gotta move faster Everybody's tellin me that I'm a fuckin bastard"

e---------------------------------------------------------------------------|
B---------------------------------------------------------------------------|
G------------10-------------------------------------------------------------|
D---8---10---10---10--------------------------------------------------------|
A---8---10---8----10--------------------------------------------------------|
E---6---8---------8---------------------------------------------------------|

Chorus
"All my dreams were just islands in the sky"

e---------------------------------------------------------------------------|
B---------------------------------------------------------------------------|
G---10------------------3x---10---------------------------------------------|
D---10---10---8---10---------10---8---10------------------------------------|
A---8----10---8---10---------8----8---10------------------------------------|
E--------8----6---8---------------6---8-------------------------------------|

Then everything again then the Post chorus is a bit different

e---------------------------------------------------------------------------|
B---------------------------------------------------------------------------|
G---10---------------10---8-------------------------------------------------|
D---10---8---10------10---8---8---6-----------------------------------------|
A---8----8---10------8----6---8---6-----------------------------------------|
E--------6---8----------------6---4-----------------------------------------|

Bridge

e---------------------------------------------------------------------------|
B---------------------------------------------------------------------------|
G---8-------8---------------------------------------------------------------|
D---8---6---8---6---8-------------------------------------------------------|
A---6---6---6---6---8-------------------------------------------------------|
E-------4-------4---6-------------------------------------------------------|

Then play the original intro twice, then the chorus and end on the F5.  And don't forget 
scream fucker at the end.  Cheers.
Tap to rate this tab
 
# A B C D E F G H I J K L M N O P Q R S T U V W X Y Z