Song name
# A B C D E F G H I J K L M N O P Q R S T U V W X Y Z

Suicide Machines - The Politics Of Humanity tab

"Drop a full step down!!" 

(verse)-10 times
(chorus)-4 times
(verse)-10 times
(chorus)-4 times 
(chorus2)-4 times
(chorus)-4 times and end on it, letting the note ring out!

           (verse)!
e|------------------------------------------------------------|
B|--5555555555---10-10-10-10-10-10-10-10-10-10----------------|
G|--6666666666---11-11-11-11-11-11-11-11-11-11-->repeat ------|
D|--6666666666---11-11-11-11-11-11-11-11-11-11-->-10----------|
A|--4444444444---9--9--9--9--9--9--9--9--9--9--->-times-------|
E|------------------------------------------------------------|
           (chorus)! 
e|------------------------------------------------------------|
B|-----------1010101010---------------------------------------|
G|-10101010101111111111---------------------------------------|
D|-10101010101111111111---13-13-13-13-13-1111111111->repeat---|
A|--8-8-8-8-8-9-9-9-9-9---13-13-13-13-13-1111111111->-4-------|
E|------------------------11-11-11-11-11--9-9-9-9-9->-times---|
           (chorus2)!
e|------------------------------------------------------------|
B|-----------1010101010---------------------------------------|
G|-10101010101111111111---------------------------------------|
D|-10101010101111111111--13-13-13-13-13-6-6-6-6-6->-repeat----|
A|--8-8-8-8-8-9-9-9-9-9--13-13-13-13-13-6-6-6-6-6->-4---------|
E|-----------------------11-11-11-11-11-4-4-4-4-4->-times-----|



| /  slide up
| \  slide down
| h  hammer-on
| p  pull-off
| ~  vibrato
| +  harmonic
| x  Mute note
==============================================================
Tap to rate this tab
# A B C D E F G H I J K L M N O P Q R S T U V W X Y Z