Song name
# A B C D E F G H I J K L M N O P Q R S T U V W X Y Z

Suicide Machines - So Long tab

This took me a while to figure out but i finally got it

Standard Tuning 

Intro
   Repeat alot       let it ring
|----------------|---------------|
|----------------|---------------|
|----7~----------|---------------|
|7~--7~--9~--11~-|--7~-----------|
|7~--5~--9~--11~-|--7~-----------|
|5~------7~--9~--|--5~-----------|

Pre-Verse

|-----------------------------|      
|-----------------------------|            
|--------------77777--99999---|       
|77777--99999--77777--99999---|       
|77777--99999--55555--77777---|      
|55555--77777-----------------|             
         Or
|---------------------------------------------|      
|---------------------------------------------|            
|----------------------1414141414-1616161616--|       
|1414141414-1616161616-1212121212-1414141414--|       
|1212121212-1414141414------------------------|      
|---------------------------------------------| 


Verse Part 1
 Let Ring
|--------|
|--------|
|--------|
|-7~-----|
|-7~-----|
|-5~-----|

Verse Part 2

|----------------------|
|----------------------|
|6666-7777-9999-77-6---|
|6666-7777-9999-77-6-9-|
|4444-5555-7777-55-4-9-|
|--------------------7-|

Chorus

|x5x5x5x5-x5x5-x7x7-|
|x5x5x5x5-x7x7-x9x9-|
|x6x6x6x6-x7x7-x9x9-|
|-------------------|
|-------------------|
|-------------------|

Pre-Verse
Verse Part 1
Verse Part 2
Chorus
Pre-Verse

End On
|----|
|----|
|----|
|7~--|
|7~--|
|5~--|
Tap to rate this tab
# A B C D E F G H I J K L M N O P Q R S T U V W X Y Z