Song name
# A B C D E F G H I J K L M N O P Q R S T U V W X Y Z

Suicide Machines - I Hate Everything tab

Its a very easy song
any queries comments or COMPLAINTS email me: thefourthhardy@hotmail.com



e|-This is the main riff------------------------------------
B|----------------------------------------------------------
G|--------------7-6---------------7-6-----------------------
D|---4-4-4-4----7-6----7-7-7-7----7-6-----------------------
A|---4-4-4-4----5-4----7-7-7-7----5-4----------------------
E|---2-2-2-2-----------5-5-5-5------------------------------

e|-Play this a couple of times near the middle--------------
B|----------------------------------------------------------
G|----------------------------------------------------------
D|---4-4-4-4----7---2---------------------------------------
A|---4-4-4-4----7---2---------------------------------------
E|---2-2-2-2----5---0---------------------------------------

Thats all the parts with distortion! Have fun!
;)
Tap to rate this tab
# A B C D E F G H I J K L M N O P Q R S T U V W X Y Z