Song name
# A B C D E F G H I J K L M N O P Q R S T U V W X Y Z

Suicide Machines - Honor Among Thieves tab

-------------------------------------------------------------------------------
			     HONOR AMONG THiEVES - Suicide machines
-------------------------------------------------------------------------------
Tabbed by:Rucus boy
Email:

Tuning: Standard


intro
e|---------------------------------------------------------------------------|
B|------8--8--8--------------------------------------------------------------|
G|---7--7--7--7--7-----------------------------------------------------------|
D|---7--5--5--5--7--------last one end on---7--------------------------------|
A|---5-----------5--------------------------7--------------------------------|
E|------------------------------------------5--------------------------------|

verse
e|---------------------------------------------------------------------------|
B|---------------------------------------------------------------------------|
G|---7-----------------------------------------------------------------------|
D|---7---7---5---7-----------------------------------------------------------|
A|---5---7---5---7-----------------------------------------------------------|
E|-------5---3---5-----------------------------------------------------------|

chours
e|---------------------------------------------------------------------------|
B|---------------------------------------------------------------------------|
G|---7------------4-------7--------------------------------------------------|
D|---7---5---7----4---5---7--4--5--------------------------------------------|
A|---5---5---7----2---5---5--4--5--------------------------------------------|
E|-------3---5--------3------2--3--------------------------------------------|
         ^
	this is left out on one set toward the end

end on
e|---------------------------------------------------------------------------|
B|---------------------------------------------------------------------------|
G|----7----------------------------------------------------------------------|
D|----7----------------------------------------------------------------------|
A|----5----------------------------------------------------------------------|
E|---------------------------------------------------------------------------|

e|---------------------------------------------------------------------------|
B|---------------------------------------------------------------------------|
G|---------------------------------------------------------------------------|
D|---------------------------------------------------------------------------|
A|---------------------------------------------------------------------------|
E|---------------------------------------------------------------------------|



| /  slide up
| \  slide down
| h  hammer-on
| p  pull-off
| ~  vibrato
| +  harmonic
| x  Mute note
===============================================================================
Tap to rate this tab
# A B C D E F G H I J K L M N O P Q R S T U V W X Y Z