Guitaretab - guitar tabs
Song name
# A B C D E F G H I J K L M N O P Q R S T U V W X Y Z

Suicide Machines - Vans Song tab

Hey my name is tim this a great song & exremely easy to play

Song:Vans Song
Artist: Suicide Machines

Intro: 10's not 1 0
|----------------------|
|----------------------|
|-101010101010101010---|
|-101010101010101010---|
|-8-8-8-8-8-8-8-8-8----|
|----------------------|
[ Tab from: http://www.guitaretab.com/s/suicide-machines/51556.html ]
Ska Parts(played the same the whole song)
|-3----1-----8-------|
|-3----1-----8-------|
|-4----2-----9-------|
|-5----3-----10------|
|--------------------|
|--------------------|


Chorus: Chords used fpr it (listen to know when to change)
|------------------------|
|------------------------|
|-------5----7-----------|
|-5-----5----7-----------|
|-5-----3----5-----------|
|-3----------------------|

Well i think thats it & its really you shouldn't have ne troubel on it.
Related for Vans Song tab
Advertisement will be closed in 10 seconds