Guitaretab - guitar tabs
Song name
# A B C D E F G H I J K L M N O P Q R S T U V W X Y Z

Suicide Machines - Goodbye For Now tab

suicide machines
goodbye for now
tabbed by:storey(corey steverson)
e-22223222252222000--| you play this until it goes into the verse
B-22223222252222000--|
G--------------------|
D--------------------|
A--------------------|
E--------------------|


e---------------------------------|verse
B---------------------------------|4x on th end strum a little bit
G---------------------------------|
D12-11-9--------12-11-9-7-7777----|
A10--9-7-7-7777-10--9-7-5-5555----|
E--------5-5555-------------------|
[ Tab from: http://www.guitaretab.com/s/suicide-machines/54645.html ]
e-----------------------------------------------------|chorus
B-----------------------------------------------------|4x
G-----------------------------------------------------|on the third time
D-------------7777777777---D-------------77777--------|
A-55555-77777-5555555555---A-55555-77777-55555-77777--|
E-33333-55555--------------E-33333-55555-------55555--|
repeat intro
repeat verse
repeat chorus,in that order
and then do this

e-------------------22320320-|
B-------------------22320320-|4x
G----------------------------|
D----------------------------|
A-5---5---5---5-5-5----------|
E-3---3---3---3-3-3----------|

e-22223222252222---------|
B-22223222252222---------|
G------------------------|
D------------------------|
A----------------7-7-7---|after the third power chord slide a little each
E----------------5-5-5---|time
after this play the chorus about three or four times
the way i tabbed this you really need to know the song
Related for Goodbye For Now tab
Advertisement will be closed in 10 seconds