Guitaretab - guitar tabs
Song name
# A B C D E F G H I J K L M N O P Q R S T U V W X Y Z

Suicide Machines - Did You Ever Get The Feeling Of Dread tab

Intro

  Dm
E--5--
B--6--
G--7--
D--7--
A--5--
E--5-- (ring for 4 beats)


Chorus

   Bb              Eb
E-x-6-x-6-x-6-x-6--x-6-x-6-x-6-x-6-|
B-x-6-x-6-x-6-x-6--x-8-x-8-x-8-x-8-|
G-x-7-x-7-x-7-x-7--x-8-x-8-x-8-x-8-|
D-x-8-x-8-x-8-x-8--x-8-x-8-x-8-x-8-|
A----------------------------------|
E----------------------------------|   x4


Verse

  Cm               Eb
E-x-3-x-3-x-3-x-3--x-6-x-6-x-6-x-6-|
B-x-4-x-4-x-4-x-4--x-8-x-8-x-8-x-8-|
G-x-5-x-5-x-5-x-5--x-8-x-8-x-8-x-8-|
D-x-5-x-5-x-5-x-5--x-8-x-8-x-8-x-8-|
A----------------------------------|
E----------------------------------|


   Bb              Eb
E-x-6-x-6-x-6-x-6--x-6-x-6-x-6-x-6-|
B-x-6-x-6-x-6-x-6--x-8-x-8-x-8-x-8-|
G-x-7-x-7-x-7-x-7--x-8-x-8-x-8-x-8-|
D-x-8-x-8-x-8-x-8--x-8-x-8-x-8-x-8-|
A----------------------------------|
E----------------------------------|    x2

[ Tab from: http://www.guitaretab.com/s/suicide-machines/58796.html ]
Interlude

 Bb  Dm  Bb  Dm    Bb  Dm  Bb  Dm
E-6-6-5-5-6-6-5-5--6-6-5-5-6-6-5-5-|
B-6-6-6-6-8-8-6-6--6-6-6-6-8-8-6-6-|
G-7-7-7-7-8-8-7-7--7-7-7-7-8-8-7-7-|
D-8-8-7-7-8-8-7-7--9-8-7-7-8-8-7-7-|
A----------------------------------|
E----------------------------------|

 Bb  Dm  Bb  Dm      Bb  Dm  Bb   F
E-6-6-5-5-6-6--8--8--6-6-5-5-6-6--8--8-|
B-6-6-6-6-8-8-10-10--6-6-6-6-8-8-10-10-|
G-7-7-7-7-8-8-10-10--7-7-7-7-8-8-10-10-|
D-8-8-7-7-8-8--7--7--8-8-7-7-8-8-10-10-|
A--------------------------------------|
E--------------------------------------|

Bb  Dm  Bb  Dm       Bb  Dm  Bb  Dm
E-6-6-5-5-6-6--8--8--6-6-5-5-6-6-5-5-|
B-6-6-6-6-8-8-10-10--6-6-6-6-8-8-6-6-|
G-7-7-7-7-8-8-10-10--7-7-7-7-8-8-6-6-|
D-8-8-7-7-8-8--7--7--8-8-7-7-8-8-7-7-|
A------------------------------------|
E------------------------------------|


End on

 Bb
E-6-
B-6-
G-7-
D-8-
A---
E---
Related for Did You Ever Get The Feeling Of Dread tab