Guitaretab - guitar tabs
Song name
# A B C D E F G H I J K L M N O P Q R S T U V W X Y Z

Suicide Machines - High Anxiety tab

INTRO

E---5------7------5-|
B---5------9------7-|
G---6------9------7-|
D---7------9------7-|
A---7------7------5-|
E---5---------------|


CHORUS

E-5-5-5-5--5-5-5-5--5-5-5-5--5-5-5-5-
B-5-5-5-5--7-7-7-7--5-5-5-5--7-7-7-7-
G-6-6-6-6--7-7-7-7--6-6-6-6--7-7-7-7-
D-7-7-7-7--7-7-7-7--7-7-7-7--7-7-7-7-
A-7-7-7-7--7-7-7-7--7-7-7-7--5-5-7-7-
E-5-5-5-5-----------5-5-5-5----------


E-5-5-5-5--5-5-4-4--5-5-5-5--5-5-5-5-
B-5-5-5-5--7-7-5-5--5-5-5-5--7-7-7-7-
G-6-6-6-6--7-7-6-6--6-6-6-6--7-7-7-7-
D-7-7-7-7--7-7-6-6--7-7-7-7--7-7-7-7-
A-7-7-7-7--5-5-4-4--7-7-7-7--5-5-5-5-
E-5-5-5-5-----------5-5-5-5----------


E-5-5-5-5--5-5-7-7-
B-5-5-5-5--5-5-9-9-
G-6-6-6-6--6-6-9-9-
D-7-7-7-7--7-7-9-9-
A-7-7-7-7--7-7-7-7-
E-5-5-5-5--5-5-----                            x1

VERSE

E-5-5-5-5--5-5-5-5-
B-5-5-5-5--7-7-7-7-
G-6-6-6-6--7-7-7-7-
D-7-7-7-7--7-7-7-7-
A-7-7-7-7--7-7-7-7-
E-5-5-5-5----------                            x4

INTERLUDE
[ Tab from: http://www.guitaretab.com/s/suicide-machines/62154.html ]
E---5---5----2---2----5---5----7---7-
B---5---5----3---3----7---7----9---9-
G---6---6----4---4----7---7----9---9-
D---7---7----4---4----7---7----9---9-
A---7---7----2---2----5---7----7---7-
E---5---5----------------------------        x3

E---5---5----2---2----5---5----------
B---5---5----3---3----7---7----------
G---6---6----4---4----7---7----------
D---7---7----4---4----7---7----------
A---7---7----2---2----5---5----------        x1
E---5---5----------------------------


SOLO - Guitar 1

E-5-5-5-5--5-5-5-5-
B-5-5-5-5--7-7-7-7-
G-6-6-6-6--7-7-7-7-
D-7-7-7-7--7-7-7-7-
A-7-7-7-7--7-7-7-7-
E-5-5-5-5----------  (same as verse)           x5

SOLO - Guitar 2

E-----------------------------------------------------------------------
B-----------------------------------------------------------------------
G------------------------------------------------------12/10-12/10-12/10
D-10-10-9/7/9-5-9-9-7-5--x2-10-10-9-7-9-12--------10/12-----------------
A-------------------------------------------10/12-----------------------
E-----------------------------------------------------------------------


END ON

E-5-
B-5-
G-6-
D-7-
A-7-
E-5-
Related for High Anxiety tab