Guitaretab - guitar tabs
Song name
# A B C D E F G H I J K L M N O P Q R S T U V W X Y Z

Suicide Machines - War Profiteering Is Killing Us All tab

Intro/chorus/end on
E-----
B-----
G-----
D--3--
A--3--
E--1--

   Riff 1
E-------------|
B-------------|
G-------------|
D--3-------6--|
A--3-------6--|
E--1-------4--|
[ Tab from: http://www.guitaretab.com/s/suicide-machines/66996.html ]
   Riff 2
E---------------|
B---------------|
G-----5------6--|
D-5---5--6---6--|
A-5---3--6---4--|
E-3------4------|

  Riff 3
E---------------|
B---------------|
G---------------|
D------3-----6--|
A------3-----6--|
E--1-1-1-----4--|
   . .

These are just the chords, I don't need to tell you the strumming pattern.

. = palm mute
Related for War Profiteering Is Killing Us All tab
×
Best way to learn
"War Profiteering Is Killing Us All"