Song name
# A B C D E F G H I J K L M N O P Q R S T U V W X Y Z

Suicide Machines - Face Values tab

Help us improve GuitareTab! Take a short survey!
----------------------------------------------------------------------------
			     Face Values - Suicide Machines
----------------------------------------------------------------------------
Tabbed by: jeremy b
Email: pinballwiz820@gmail.com

Tuning: e a d g b e

This is my first tab which i actually only started looking at about a half an hour ago 
finding no tabs for this awesome song online.  Email any suggestions or mistakes you find 
me (especially on verse part c).

| S  ska (down then up) strokes
| x  palm mute
| *  let ring

Intro

e|----------------|
B|----------------|
G|---------55-----|
D|-5555-33-55-----| x4
A|-5555-33-33-----|
E|-3333-11--------|


Verse Part A

e|---5555--------------------5555----------------|
B|---7777--------------------7777----------------|
G|---7777-9999-5555----------7777-9999-5555------|
D|-5-7777-9999-5555-----5555-7777-9999-5555------|
A|-5-5555-7777-3333-----5555-5555-7777-3333------|
E|-3--------------------3333---------------------|
   * SSSS                    SSSS


Verse Part B

e|-33-55-77-33-------|
B|-33-77-99-55-------|
G|-44-77-99-55-------|
D|-55-77-99-55-------| x2
A|-55-55-77-33-------|
E|-33----------------|
   SS SS SS SS

Verse Part C (I can't quite master this verse unfortunately)

e|----------------------------------------|
B|----------------------------------------|
G|----------------------------------------|
D|--------------57------79------355-------| x2
A|------35-55-5----77-7----33-3-----------|
E|-33-3-----------------------------------|
   xx x    xx x    xx x    xx x


Chorus

e|---------------|
B|---------------|
G|------77-33----|
D|-5555-77-33----| x4
A|-5555-55-33----|
E|-3333----------|


Verse Part A (second time)

e|---5555--------------------5555----------------|
B|---7777--------------------7777----------------|
G|---7777-9999-5555----------7777-9999-5555------|
D|-5-7777-9999-5555-----5555-7777-9999-5555------|
A|-5-5555-7777-3333-----5555-5555-7777-3333------|
E|-3--------------------3333---------------------|
   * SSSS                    SSSS


Outro

e|----------------|
B|----------------|
G|---------55-----|
D|-5555-33-55-----| x4
A|-5555-33-33-----|
E|-3333-11--------|


End on

e|----|
B|----|
G|----|
D|-5--|
A|-5--|
E|-3--|

SKA PUNK WILL NEVER DIE!!!!!!!
============================================================================
Related for Face Values tab