Song name
# A B C D E F G H I J K L M N O P Q R S T U V W X Y Z

Suicide Silence - Unanswered tab

Band:Suicide Silence
Song:Unanswered
Album:The Cleansing
Tabbed by:I<3Hobos

7 String tuning would be just drop the low B string to an A
and for a 6 String tuning it would be Drop A


Now what i did was i watched "Chris Garza - Guitar Lessons #1"
on Suicide Silence's Youtube channel 
where he shows you how to play Unanswered
and i just copy and pasted the first version of this tab and fixed it
most of it was just a Fret higher than what it originally is.

So credit to "DyingToLive623" for getting the basics down.



|-------------------|
|      Legend       |
|-------------------|
|                   |
|. = Palm Mute      |
|                   |
|* = Pinch Harmonic |
|                   |
|" = Tremolo pick   |
|                   |
|~ = Let ring       |
|                   |
|-------------------|


(0:00 - 0:04)
B |---------------------------------------------------------------------------|
F#|---------------------------------------------------------------------------|
D |---------------------------------------------------------------------------|
A |---------------------------------------------------------------------------|
E |--2-1-0--2-1-0--2-1-0--2-1-0-----------------------------------------------|
A |--2-1-0--2-1-0--2-1-0--2-1-0--2"-1"-0"-------------------------------------|
     . . .  . . .  . . .  . . .

(0:05 - 0:06)
B |---------------------------------------------------------------------------|
F#|---------------------------------------------------------------------------|
D |---------------------------------------------------------------------------|
A |---------------------------------------------------------------------------|
E |--2-1-0--2-1-0--2-1-0------------------------------------------------------|
A |--2-1-0--2-1-0--2-1-0------------------------------------------------------|
     . . .  . . .  . . .

(0:07 - 0:14)
B |---------------------------------------------------------------------------|
F#|---------------------------------------------------------------------------|
D |---------------------------------------------------------------------------|
A |------------------1"------------------1"-----------------------------------| 2x
E |---------------------------------------------------------------------------|
A |--1"-0"-1"-2"-5"---------1"-0"-1"-2"---------------------------------------|

(0:15 -0:21)
B |---------------------------------------------------------------------------|
F#|---------------------------------------------------------------------------|
D |---------------------------------------------------------------------------|
A |---------------------------------------------------------------------------|
E |--2-1-0--2-1-0--2-1-0--2-1-0-------------0-1-2--0-1-2--0-1-2---------------|
A |--2-1-0--2-1-0--2-1-0--2-1-0--2"-1"-0"---0-1-2--0-1-2--0-1-2---------------|
     . . .  . . .  . . .  . . .             . . .  . . .  . .

(0:23 - 0:39)
B |---------------------------------------------------------------------------|
F#|---------------------------------------------------------------------------|
D |---------------------------------------------------------------------------|
A |---------------------------------------------------------------------------| 4x
E |--2-2-1-0-1-0-2-1-0-2-1-0-1-0----------------------------------------------|
A |--2-2-1-0-1-0-2-1-0-2-1-0-1-0---2"-1"-0"-----------------------------------|
     . . . . . . . . . . . . . .

(0:40 - 0:43)
B |---------------------------------------------------------------------------|
F#|---------------------------------------------------------------------------|
D |---------------------------------------------------------------------------|
A |------------------1"------------------1"-----------------------------------| 2x
E |---------------------------------------------------------------------------|
A |--1"-0"-1"-2"-5"---------1"-0"-1"-2"---------------------------------------|
   

(0:44 - 0:55)
B |---------------------------------------------------------------------------|
F#|---------------------------------------------------------------------------|
D |---------------------------------------------------------------------------|
A |-----------1"---------1"---------------------------------------------------| 3x
E |--1-0-1-2-----1-0-1--------------------------------------------------------|
A |--1-0-1-2-----1-0-1--------------------------------------------------------|
     . . . .     . . .

(0:56 - 1:03)
B |---------------------------------------------------------------------------|
F#|---------------------------------------------------------------------------|
D |---------------------------------------------------------------------------|
A |---------2*----------------------------------------------------------------| 4x
E |--2-1-0--------------------------------------------------------------------|
A |--2-1-0-----2"-1"-0"-------------------------------------------------------|
     . . .


(1:04 - 1:19)
B |---------------------------------------------------------------------------|
F#|---------------------------------------------------------------------------|
D |---------------------------------------------------------------------------|
A |-----------1"---------1"---------------------------------------------------| 4x
E |--1-0-1-2-----1-0-1--------------------------------------------------------|
A |--1-0-1-2-----1-0-1--------------------------------------------------------|
     . . . .     . . .

(1:20 - 1:22)
B |---------------------------------------------------------------------------|
F#|---------------------------------------------------------------------------|
D |---------------------------------------------------------------------------|
A |-------------1"------------------------------------------------------------|
E |--1-0-1-2--------1-0-1-----------------------------------------------------|
A |--1-0-1-2-0"-----1-0-1-----------------------------------------------------|
     . . . .        . . .

(1:23 - 1:30)
B |---------------------------------------------------------------------------|
F#|---------------------------------------------------------------------------|
D |---------------------------------------------------------------------------|
A |---------------------------------------------------------------------------|
E |--2-1-0--2-1-0--2-1-0--2-1-0-------------2-1-0--2-1-0--2-1-0---------------|
A |--2-1-0--2-1-0--2-1-0--2-1-0--2"-1"-0"---2-1-0--2-1-0--2-1-0---------------|
     . . .  . . .  . . .  . . .             . . .  . . .  . .

(1:31 - 1:45)
B |---------------------------------------------------------------------------|
F#|---------------------------------------------------------------------------|
D |---------------------------------------------------------------------------|
A |---------------------------------------------------------------------------| 4x
E |--2-2-1-0-2-1-0------2-1-0-2-1-0-1-----------------------------------------|
A |--2-2-1-0-2-1-0------2-1-0-2-1-0-1-----------------------------------------|
     . . . . . . .      . . . . . . .

(1:48 - 2:06)
B |---------------------------------------------------------------------------|
F#|---------------------------------------------------------------------------|
D |---------------------------------------------------------------------------|
A |---------------------------------------------------------------------------| 4x
E |--0000-0-0-0---------------------------------------------------------------|
A |--1111-1-1-1---------etc, etc you know the ryhthm--------------------------| I Fixed This Part.
     .... . . .

(2:06 - 2:13)
B |---------------------------------------------------------------------------|
F#|---------------------------------------------------------------------------|
D |---------------------------------------------------------------------------|
A |---------------------------------------------------------------------------|
E |--2-1-0--2-1-0--2-1-0--2-1-0-------------0-1-2--0-1-2--0-1-2---------------|
A |--2-1-0--2-1-0--2-1-0--2-1-0--2"-1"-0"---0-1-2--0-1-2--0-1-2---------------|
     . . .  . . .  . . .  . . .             . . .  . . .  . .
Tap to rate this tab
# A B C D E F G H I J K L M N O P Q R S T U V W X Y Z