Song name
# A B C D E F G H I J K L M N O P Q R S T U V W X Y Z

Suicide Silence - And Then She Bled tab

Band-Suicide Silence
Album-No Time To Bleed
Song-...and Then She Bled
Tuning-AEADGBE low to high

this song is pretty easy. tabbed for 7 string but can also be played on a 6 off of this
just match up the tuning.

i dont know if the intro (0:00-0:27) is a pick scrape or just really distorted but this
what i got.

0:00
|------10----------10----------|
|12----------12----------------|
|------------------------------|
|------------------------------|
|------------------------------|
|------------------------------|
|------------------------------|

0:28
|-------------------|
|-------------------|
|-------------------|
|12----12--11----11-|
|-------------------|
|-------------------|
|-------------------|

0:34
|------------------------|
|------------------------|
|------------------------|
|12----12--11-----11--12-|
|----11--11-----11--11---|
|------------------------|
|------------------------|

0:45
|-----------------------------------|
|-----------------------------------|
|-----------------------------------|
|12--11----11------12---------11----|
|--------11-------------------------|
|-----------------------------------|
|-----------------------------------|

0:57
|-----------------------------------------|x2
|-----------------------------------------|
|-----------------------------------------|
|-----------------------------------------|
|-----------------------------------------|
|-2---222---222---22---0---000---000---00-|
|-2---222---222---22---0---000---000---00-|

1:12
|---|
|---|
|---|
|---|
|---|
|-2-|
|-2-|

1:13
|-----------------------------------------|x2
|-----------------------------------------|
|-----------------------------------------|
|-----------------------------------------|
|-----------------------------------------|
|-2---222---222---22---0---000---000---00-|
|-2---222---222---22---0---000---000---00-|

1:28
|------------------------------------------------|
|------------------------------------------------|
|------------------------------------------------|
|12----12--11----11---12-------12--11------11----|
|----------------------------11--11------11--11--|
|------------------------------------------------|
|------------------------------------------------|

1:43
|--------------------------------------------------------------------|x2
|--------------------------------------------------------------------|
|--------------------------------------------------------------------|
|--------------------------------------------------------------------|
|--------------------------------------------------------------------|
|-222222222222222220000000000000005555555555555555533333333333333333-|
|-222222222222222220000000000000005555555555555555533333333333333333-|

2:13
|-----------------------------------------|
|-----------------------------------------|
|-----------------------------------------|
|-----------------------------------------|
|-----------------------------------------|
|-2---------0---------5---------3---------|
|-2---------0---------5---------3---------|

2:28
|-----|x10
|-----|
|-----|
|-----|
|-----|
|-2-0-|
|-2-0-|

2:35
|-----|x21
|-----|
|-----|
|-----|
|-----|
|-2-0-|
|-2-0-|
  . .   palm mute

2:50
|-------14----|x17
|-12-11----12-|
|-------------|
|-------------|
|-------------|
|-------------|
|-------------|

thats it...a pretty simple song if you ask me. there are a couple notes im not sure if
are lead or rhythm but i tabbed what sounded to be lead guitar. im pretty sure this is
to perfect but its up to you guys to decide. please comment. more songs are soon to 
i think suffer is next on my list.
Tap to rate this tab
# A B C D E F G H I J K L M N O P Q R S T U V W X Y Z