Song name
# A B C D E F G H I J K L M N O P Q R S T U V W X Y Z

Suicide Silence - Your Creations tab

-------------------------------------------------------------------------------
		    YOUR CREATIONS - Suicide Silence
-------------------------------------------------------------------------------
Tabbed by:
Email:

Tuning:Drop A
AEADF#B 
or
AEADGBE for 7 string.

It really doesn't matter, the song doesn't use the D string or higher.

Tempos listed are relative to the section of the song.
                  Add this on                               However many
Riff A            some  repeats     Riff B                  times it repeats
   Q E E E E E     E E   E E        S S S S S etc.
B|--------------- ---------------- ------------------------------------------|
G|--------------- ---------------- ------------------------------------------|
D|--------------- ---------------- ------------------------------------------|
A|--------------- ---------------- ------------------------------------------|
E|-1-4-3-1-3-0--- -4-2---2-1------ -4-4---------4-4---------4-4-----5-5------|
A|-1-4-3-1-3-0--- -4-2---2-1------ -----1-1-1-1-----1-1-1-1-----1-1-----1-1--|   
     . . . . .     . .   . .                        
  Breakdown A       Variation            Breakdown B           Drums/Vox
   E E E E etc.      E E E E SSSS SSSS   S Q   S Q   E E Q     bit
B|----------------- ------------------- ---------------------- --------------|
G|----------------- ------------------- ---------------------- --------------|
D|----------------- ------------------- ---------------------- --------------|
A|----------------- ------------------- ---------------------- --------------|
E|-2-1-1-1-2-1-2-1- -2-1-1-1----------- -3-----3-----3-5------ -/-1----------|
A|-2-1-1-1-2-1-2-1- -2-1-1-1-1111-1111- -3-2b3-3-2b3-3-5--2b3- -/-1----------|    
       . .   .   .       . . .... ...    .     .     . .          .  
  Breakdown B
  Variation       Outro Breakdown
   S Q S Q E E Q   Q Q Q Q E E    
B|--------------- -------------|
G|--------------- -------------|
D|--------------- -------------|
A|--------------- -------1-2-3-|
E|-1---1---1-3--- -1-1-1-1-2-3-|
A|-1-0-1-0-1-3-0- -1-1-1-------| 
   .   .   . .     . . . 

Too many variations to label one section a 'verse' 
or another section a 'chorus.' Just listen to the song,
that should tell you what parts come in where.  

Thanks for reading.

| /  slide up
| \  slide down
| h  hammer-on
| p  pull-off
| ~  vibrato
| +  harmonic
| x  Mute note
===============================================================================
Tap to rate this tab
# A B C D E F G H I J K L M N O P Q R S T U V W X Y Z