Guitaretab - guitar tabs
Song name
# A B C D E F G H I J K L M N O P Q R S T U V W X Y Z

Suicide Silence - Smoke tab

Band: Suicide Silence
Album: No Time to Bleed
Song: Smoke
Tuning:AEADGBE low to high

once again tabbed for a seven string but set your tuning right on a six and you can play it.

requested by: Touch Of Red.  here it is hope you like it. song is 
pretty fast so im not sure if i got every single note but this is 
what i hear.  i have no idea how to get a screech on a guitar like
that so if you guys want to try go ahead...i dont even know if 
that is a guitar.

0:00
|-----------------|x9
|-----------------|
|-----------------|
|-----------------|
|-----------------|
|-0000-0000000000-|
|-0000-0000000000-|

0:34
|-15-15\\\----15-15\\\--|
|-15-15\\\----15-15\\\--|
|-----------------------|
|-----------------------|
|-----------------------|
|-----------------------|
|---------------------0-|

0:36
|-------------------------|
|-------------------------|
|-------------------------|
|-------------------------|
|-3-3-3-1-1-1-------------|
|-3-3-3-1-1-1-------------|
|-------------0-1-0-0-1-0-|

0:39
|---------------|
|---------------|
|---------------|
|---------------|
|-3-3-3-1-1-1---|
|-3-3-3-1-1-1-0-|
|-------------0-|

0:41
|-------------------------|x4
|-------------------------|
|-------------------------|
|-------------------------|
|-3-3-3-1-1-1-------------|
|-3-3-3-1-1-1-------------|
|-------------0-1-0-0-1-0-|

0:50
|-----------------------------|x4
|-----------------------------|
|-----------------------------|
|-3-3-3-3-3-3-3-3-------------|
|-3-3-3-3-3-3-3-3-------------|
|-3-3-3-3-3-3-3-3-------------|
|-----------------0-1-0-0-1-0-|

0:59
|-------------------------|x4
|-------------------------|
|-------------------------|
|-------------------------|
|-3-3-3-1-1-1-------------|
|-3-3-3-1-1-1-------------|
|-------------0-1-0-0-1-0-|

1:07
|---------|x4
|---------|
|---------|
|---------|
|---------|
|---------|
|-0-------|
[ Tab from: http://www.guitaretab.com/s/suicide-silence/192505.html ]
1:18
|-----------------------|x8
|-----------------------|
|-----------------------|
|-----------------------|
|-----------------------|
|-----------------------|
|-1-1-1-1-1-1-1-1-1-1-1-|

1:40
|---------------|x2
|---------------|
|---------------|
|---------------|
|-3-3-3-1-1-1---|
|-3-3-3-1-1-1-0-|
|-------------0-|

1:45
|-------------------------|
|-------------------------|
|-------------------------|
|-------------------------|
|-3-3-3-1-1-1-------------|
|-3-3-3-1-1-1-------------|
|-------------0-1-0-0-1-0-|

1:47
|---------------|
|---------------|
|---------------|
|---------------|
|-3-3-3-1-1-1---|
|-3-3-3-1-1-1-0-|
|-------------0-|

1:50
|-------------------------|x4
|-------------------------|
|-------------------------|
|-------------------------|
|-3-3-3-1-1-1-------------|
|-3-3-3-1-1-1-------------|
|-------------0-1-0-0-1-0-|

1:59
|-----------------------------|x4
|-----------------------------|
|-----------------------------|
|-3-3-3-3-3-3-3-3-------------|
|-3-3-3-3-3-3-3-3-------------|
|-3-3-3-3-3-3-3-3-------------|
|-----------------0-1-0-0-1-0-|

2:08
|-----|x16
|-----|
|-----|
|-----|
|-----|
|-----|
|-0-1-|

2:17
|---------|x4
|---------|
|---------|
|---------|
|---------|
|---------|
|-0-------|

2:27
|-------------|  in the background- |-------|x16
|-------------|                     |-------|
|-------------|                     |-------|
|-------------|                     |-------|
|-------------|                     |-------|
|-------------|                     |-------|
|-1-----------|                     |-0-1-1-|

2:38
|-------------------------|x8
|-------------------------|
|-------------------------|
|-------------------------|
|-------------------------|
|-------------------------|
|-3-1--1-1-1-1--1-1-1-1-1-|

3:02
|-----------------------|
|-----------------------|
|-----------------------|
|-----------------------|
|-----------------------|
|-1-1--1-1-1-1--1-1-1-1-|
|-1-1--1-1-1-1--1-1-1-1-|

thats the song tell me what you think.
Related for Smoke tab
Advertisement will be closed in 10 seconds