Song name
# A B C D E F G H I J K L M N O P Q R S T U V W X Y Z

Suicide Silence - Genocide tab

Another shot at a Suicide Silence intro
Sorry its not the whole song
Its pretty hard to hear over the speed bursts of the drummer
But here's the Genocide intro

Its a ^string tab again
Sorry I dont have a 7 string yet

B |-----------------------------|
F#|-----------------------------|
D |-----------------------------|
A |-1-1-1-1--6-1-6--1-1-1-1-----|
E |-1-1-1-1--6-1-6--1-1-1-1-----|
A |-1-1-1-1--6-1-6--1-1-1-1-----|  0:00
    * * * *    *    * * * *
B |-------------------------------------------------|
F#|-------------------------------------------------|
D |-------------------------------------------------|
A |-1-1-1-1--6-1-6--1-1-1-1---1-1-1-1--1--1---------|
E |-1-1-1-1--6-1-6--1-1-1-1---1-1-1-1--1--1---------|
A |-1-1-1-1--6-1-6--1-1-1-1---1-1-1-1--1--1---------|  0:03 x4
    * * * *    *    * * * *   * * * *  *  *

Im pretty sure thats enough PM's for that verse



B |--------------------|
F#|--------------------|
D |--------------------|
A |--------------------|
E |--------------------|
A |--1111--5555--3333--|
     ****  ****  ****

Sorry I can't get the verse but if I do I'll update the tab
Well this is open for corrections as well
I'm pretty sure it's better than my Disengage opening tab
Well please comment let me know what you all think
ROCK ON YOU SUICIDE SILENCE FANS!!! \m/
Tap to rate this tab
# A B C D E F G H I J K L M N O P Q R S T U V W X Y Z