Song name
# A B C D E F G H I J K L M N O P Q R S T U V W X Y Z

Suicide Silence - Wasted tab

Wasted by Suicide Silence
Off the No Time To Bleed Album
Drop A tuning - AEADF#B
Its tabbed for a 6 string but can be played on a 7 string


B |----------------------------------------------------------|
F#|----------------------------------------------------------|
D |----------------------------------------------------------|
A |--------------------------------------------------------1-|
E |--------------------------------------------------------1-|
A |-111--111--111--111--111--111--111--111--111--111--111--1-| x2 begins 0:14
    ***  ***  ***  ***  ***  ***  ***  ***  ***  ***  ***  *

B |------------------------------------|
F#|------------------------------------|
D |------------------------------------|
A |------------------------------------|
E |------------------------------------|
A |-0H1P0-0H1P1-00-00-0H1P0------------| x3 0:28

Cant figure out this bit from 0:33 to 0:47
The drummer is playing over the guitarist which makes it hard to hear

B |----------------------------------------------------------|
F#|----------------------------------------------------------|
D |----------------------------------------------------------|
A |--------------------------------------------------------1-|
E |--------------------------------------------------------1-|
A |-111--111--111--111--111--111--111--111--111--111--111--1-| 
    ***  ***  ***  ***  ***  ***  ***  ***  ***  ***  ***  *

B |----------------------------------------------|
F#|----------------------------------------------|
D |----------------------------------------------|
A |-2-------------2-------------2----------------|
E |-2--5555-5555--2--5555-5555--2--5555-555H6P5--|
A |-2-------------2-------------2----------------| x2
    *             *             *

B |------------------------|
F#|------------------------|
D |------------------------|
A |-1-1-1-1-1-1-1-1--------|
E |-1-1-1-1-1-1-1-1---*2b--|
A |-1-1-1-1-1-1-1-1--------| x4 Second time hit harmonic 
    * * * * * * * *             Fourth time dont hit harmonic

Cant figure out this bit over the drummer from 1:10 to 1:17

B |------------------------|
F#|------------------------|
D |------------------------|
A |-1-1-1-1-1-1-1-1--------|
E |-1-1-1-1-1-1-1-1---*2b--|
A |-1-1-1-1-1-1-1-1--------| x4 Second time hit harmonic 
    * * * * * * * *             Fourth time dont hit harmonic



B |------------------------------------|
F#|------------------------------------|
D |------------------------------------|
A |------------------------------------|
E |------------------------------------|
A |-0H1P0-0H1P1-00-00-0H1P0------------| x2

Sorry guys another riff I cant hear over the drummer from 1:28 to 1:42
It sounds similar to the galloping riff in the beginning but I cant
exactly tell

B |----------------------------------------------|
F#|----------------------------------------------|
D |----------------------------------------------|
A |-2-------------2-------------2----------------|
E |-2--5555-5555--2--5555-5555--2--5555-555H6P5--|
A |-2-------------2-------------2----------------| x4
    *             *             *

B |------------------------|
F#|-------------9----------|
D |-------------12---------|
A |------------------------|
E |------------------------|
A |--111-111---------------| x6
     *** ***
B |------------------------------------|
F#|------------------------------------|
D |------------------------------------|
A |------------------------------------|
E |------------------------------------|
A |-0H1P0-0H1P1-00-00-0H1P0------------|

Still working on the solo
Should have it up soon


B |----------------------------------------------------------|
F#|----------------------------------------------------------|
D |----------------------------------------------------------|
A |--------------------------------------------------------1-|
E |--------------------------------------------------------1-|
A |-111--111--111--111--111--111--111--111--111--111--111--1-| x2
    ***  ***  ***  ***  ***  ***  ***  ***  ***  ***  ***  *

B |-----------------------------------------------------------|
F#|-----------------------------------------------------------|
D |----666--666-----------666--666-----------666--666---------|
A |-1--555--555--------1--555--555--------1--555--555---------|
E |-1--444--444--------1--444--444--------1--444--444---------|
A |-1------------------1------------------1-------------------| 
    *                  *                  *

Play the final riff til the end of the song
Please comment
And this is my first full well 90% completed tab
Please feel free to correct
Its open for corrections
Tap to rate this tab
# A B C D E F G H I J K L M N O P Q R S T U V W X Y Z