Song name
# A B C D E F G H I J K L M N O P Q R S T U V W X Y Z

Suicide Silence - Wake Up tab

----------------------------------------------------------------------------
			     Wake Up - Suicide Silence
----------------------------------------------------------------------------
Tabbed by: Diogo Vargas, from The Way To Decay.
Email: im_vargas@hotmail.com

This is my first tab, hope you enjoy!
I think everything is all right.

Tuning: Drop A 7 string (EBGDAEA)

Riff A

e|--------------------------------------------------------------------------|
B|--------------------------------------------------------------------------|
G|--------------------------------------------------------------------------|
D|--------------------------------------------------------------------------|
A|-11--------11---------1-11-11---------------------------------------------|
E|-11-44444b-11-444444b-1-11-11---------------------------------------------|
A|-11--------11---------1-11-11---------------------------------------------|

(These are 1 not 11)

Riff B

e|--------------------------------------------------------------------------|
B|--------------------------------------------------------------------------|
G|--------------------------------------------------------------------------|
D|--------------------------------------------------------------------------|
A|-1--3--1------1--3---4-------1--------------------------------------------|
E|-1--3--1------1--3---4-------1--------------------------------------------|
A|-1--3--1--3b--1--3---4h7p4h7-1--------------------------------------------|

Riff C

e|--------------------------------------------------------------------------|
B|--------------------------------------------------------------------------|
G|--------------------------------------------------------------------------|
D|--------------------------------------------------------------------------|
A|-4h7p4h7p4---------3b--4h7p4h7p4------------------------------------------|
E|------------5h6p4-----------------5h6p4-----------------------------------|
A|-----------------------------------------3b-------------------------------|

Riff D

e|----------------|---------------------------------------------------------|
B|----------------|---------------------------------------------------------|
G|----------------|---------------------------------------------------------|
D|----------------|---------------------------------------------------------|
A|----------------|---------------------------------------------------------|
E|-----11-----22--|---11------22--2h3p2-----4h5p4---------------------------|
A|-14-----25------|-14------25-------------5---------747474--111111---------|

(these are "1" and "2" not "14" and "25", for the whole riff)

Riff E

e|--------------------------------------------------------------------------|
B|--------------------------------------------------------------------------|
G|--------------------------------------------------------------------------|
D|--------------------------------------------------------------------------|
A|-0--(0)--0--(0)-----------------------------------------------------------|
E|-0--(0)--0--(0)-----------------------------------------------------------|
A|-0--(0)--0--(0)-----------------------------------------------------------|

Riff F

e|--------------------------------------------------------------------------|
B|--------------------------------------------------------------------------|
G|--------------------------------------------------------------------------|
D|--------------------------------------------------------------------------|
A|-6/7\6--7--7-10--9---6/7\4--4--6--6/7--6--6/7\6--7--7-10--9--14--13-------|
E|-4/5\4--5--5/8---7---4/5\4--2--4--4/5--4--4/5\4--5--5/8---7--12--11-------|
A|--------------------------------------------------------------------------|
                                                 (these are "12" and "11")
Solo

e|---------------------------------------------------------------------------|
B|-------------------------------14-13-14-16---------------------------------|
G|-------------------------------------------14-13---------------------------|
D|----------------14h17p14h17p14---------------------------------------------|
A|-13h16p13h16p13------------------------------------------------------------|
E|---------------------------------------------------------------------------|
A|---------------------------------------------------------------------------|

E|-----------------------------------------------------16-15----------------|
B|--------------------------------------------------------------------------|
G|-t17-13-14-t17-13-14-t17-13-14-t17-13-14----------------------------------|
D|-----------------------------------------15-14-15-18----------------------|
A|--------------------------------------------------------------------------|
E|--------------------------------------------------------------------------|
A|--------------------------------------------------------------------------|

e|----------12h15p12----------------12h15p12----------------12h15p12--------|
B|-------14----------14----------14----------14----------14----------14-----|
G|-12h15----------------15-12h15----------------15-12h15----------------15--|
D|--------------------------------------------------------------------------|
A|--------------------------------------------------------------------------|
E|--------------------------------------------------------------------------|
A|--------------------------------------------------------------------------|

e|----------12h15p12--------21-20-------------------------------------------|
B|-------14----------14-----------------------------------------------------|
G|-12h15----------------15--------------------------------------------------|
D|--------------------------------------------------------------------------|
A|--------------------------------------------------------------------------|
E|--------------------------------------------------------------------------|
A|--------------------------------------------------------------------------|

(sweep picking)(im not 100% about this sweep)

Riff G

e|--------------------------------------------------------------------------|
B|--------------------------------------------------------------------------|
G|--------------------------------------------------------------------------|
D|--------------------------------------------------------------------------|
A|--------------------------------------------------------------------------|
E|--------------------------------------------------------------------------|
A|-11-11-1111111-11-1111111-11-1111111-11-11111-----------------------------|

Riff H

e|---------------------------------------|----------------------------------|
B|---------------------------------------|----------------------------------|
G|---------------------------------------|----------------------------------|
D|---------------------------------------|----------------------------------|
A|---------------------------------------|----------------------------------|
E|---------------------------------------|----------------------------------|
A|-431-321-1-431-321---431-321-1-431-321-|-11-11----------------------------|
 ( listen carefuly for the timing )

| /  slide up
| \  slide down
| h  hammer-on
| p  pull-off
| x  Mute note
| t  tap
| b  bend
Tap to rate this tab
# A B C D E F G H I J K L M N O P Q R S T U V W X Y Z