Song name
# A B C D E F G H I J K L M N O P Q R S T U V W X Y Z

Suicide Silence - No Pity For A Coward tab

Suicide Silence - No Pity For a Coward (outro sweeps)

Tuning: Drop A (A-E-A-D-F#-B)

*(mostly all triplets, keep in mind)*

|----------------13h17-13----------------------------12h16-12-------------|
|-------------15----------15----------------------14----------14----------|
|----------14----------------14----------------13----------------13-------|
|-------15----------------------15----------14----------------------14----|
|-12h17----------------------------17-11h16----------------------------16-|
|-------------------------------------------------------------------------|


|---------------13h17-13---------------------------------------------------|
|------------15----------15----------------------------------------14------|
|---------14----------------14----------------12h15p12-------12h15----15---|
|------15----------------------15----------14-------------14-------------17|
|12h17----------------------------17-13h16-------------16------------------|
|--------------------------------------------------------------------------|

                    T                                   T
|-------------13h17-22p17p13----------------------12h16-21p16p12----------|
|----------15----------------15----------------14----------------14-------|
|-------14----------------------14----------13----------------------13----|
|----15----------------------------15----14----------------------------14-|
|-17----------------------------------16----------------------------------|
|-------------------------------------------------------------------------|

                   T
|------------13h17-22p17p13------------------------------------------------|
|---------15----------------15-------------------------------------14------|
|------14----------------------14-------------12h15p12-------12h15----15---|
|---15----------------------------15-------14-------------14-------------17|
|17----------------------------------13h16-------------16------------------|
|--------------------------------------------------------------------------|

                    T
|-------------13h17-22-------|
|----------15----------------|
|-------14-------------------|
|----15----------------------|
|-17-------------------------|
|----------------------------|

There are a bunch of different finger positions you can do for the pattern in bars 4 and
but i figured those are easiest since they set you up for the next pattern better than
I've seen people tab them before. Plus, most ppl have some notes wrong, so I thought I'd 
my own version of this. Comment/Rate/Enjoy.
Tap to rate this tab
 
# A B C D E F G H I J K L M N O P Q R S T U V W X Y Z