Song name
# A B C D E F G H I J K L M N O P Q R S T U V W X Y Z

Suicide Silence - Genocide tab

                  alls i really have now is the solo
                   tabbed out decent ive only been
                    working on it for few days but
                    ima do whole song soon but for
                     now this is what i have solo.


x - dead note
* - pinch harmonic
h - hammer on
p - pull off
b - bend
~ - let ring



sweep

E|----------------------------------------|-
B|----------4h7-4~----------4h7-4~--------|--
G|--------5---------------5--------3~-----|---
D|------5---------------5-----------------|---- x 2
A|----6---------------6-------------------|---
E|--8---------------8---------------------|--
A|----------------------------------------|-

E|-----------------------------1212-8-7-1414-8-7---|-
B|--7h10p7--x--11h14p11~---------------------------|--
G|-----------------------12*-----------------------|---
D|-------------------------------------------------|---- x 1
A|-------------------------------------------------|---
E|-------------------------------------------------|--
A|-------------------------------------------------|-

E|--1515-11-10-1616-11-10---18~-17~-17-18-17-15-17-15--14b----|-
B|------------------------------------------------------------|--
G|------------------------------------------------------------|---
D|------------------------------------------------------------|---- x 1
A|------------------------------------------------------------|---
E|------------------------------------------------------------|--
A|------------------------------------------------------------|-

                im sorry for the few mistakes in this
                ill correct them down the road thanks
                           rate and comment
                                 (:
Tap to rate this tab
# A B C D E F G H I J K L M N O P Q R S T U V W X Y Z