Song name
# A B C D E F G H I J K L M N O P Q R S T U V W X Y Z

Suicide Silence - And Then She Bled tab

Song: ...and Then She Bled
Artist:  Suicide Silence
Tabber:  IanSaysRawr
Tuning:  Drop A - 7-string (low to high) [A E A D G B E]


This is 100% by ear. There are a few spots that probably aren't completely
correct, but they're very close. I didn't put how many repeats there are,
because there are way too many for my patience. But please rate, and comment
or message me any corrections you feel fit. Thanks!

|-----------------------------------|
|o-11~-11-10~--10-11~--11-10~--10--o|
|--12~-12-11~--11-12~--12-11~--11---|
|-----------------------------------|
|-----------------------------------|
|o---------------------------------o|
|-----------------------------------|

|-----------------------------------------|
|----------------------------------------o|
|-----------------------------------------|
|-----------------------------------------|
|-3~-3-33--3-33--3-3--0~-0-00--0-00--0-0--|
|-3~-3-33--3-33--3-3--0~-0-00--0-00--0-0-o|
|-3~-3-33--3-33--3-3--0~-0-00--0-00--0-0--|
     . ..  . ..  . .     . ..  . ..  . .
(bass slide)

Not 100% correct, but pretty close.
|------------------------------------|
|o-11~---11-10~--10-11~--11-10~--10-o|
|--12~---12-11~--11-12~--12-11~--11--|
|------------------------------------|
|------------------------------------|
|o----------------------------------o|
|------------------------------------|
|
|------8----8----8-----8----8----8---|
|o-11~--11---11----10~--10---10-----o|
|--12~----12---12--11~----11---11----|
|------------------------------------|
|------------------------------------|
|o----------------------------------o|
|------------------------------------|

|------------------------------------|
|o-11~---11-10~--10-11~--11-10~--10-o|
|--12~---12-11~--11-12~--12-11~--11--|
|------------------------------------|
|------------------------------------|
|o----------------------------------o|
|------------------------------------|
|
|-----------------------------------------|
|----------------------------------------o|
|-----------------------------------------|
|-----------------------------------------|
|-3~-3-33--3-33--3-3--0~-0-00--0-00--0-0--|
|-3~-3-33--3-33--3-3--0~-0-00--0-00--0-0-o|
|-3~-3-33--3-33--3-3--0~-0-00--0-00--0-0--|
     . ..  . ..  . .     . ..  . ..  . .

|------------------------------------|
|o-11~---11-10~--10-11~--11-10~--10-o|
|--12~---12-11~--11-12~--12-11~--11--|
|------------------------------------|
|------------------------------------|
|o----------------------------------o|
|------------------------------------|

|------------------------------------------------------------------------|
|o----------------------------------------------------------------------o|
|------------------------------------------------------------------------|
|------------------------------------------------------------------------|
|--2~-2~-2~2~22~2~-2\0~-0~-0~0~00~0~-5/6~-6~-6~6~66~6~-63~-3~-3~3~33~3~--|
|o-2~-2~-2~2~22~2~-2\0~-0~-0~0~00~0~-5/6~-6~-6~6~66~6~-63~-3~-3~3~33~3~-o|
|--2~-2~-2~2~22~2~-2\0~-0~-0~0~00~0~-5/6~-6~-6~6~66~6~-63~-3~-3~3~33~3~--|

|-----------------------------------------------------------------------|
|o---------------------------------------------------------------------o|
|-----------------------------------------------------------------------|
|-----------------------------------------------------------------------|
|--2~----------------0~----------------6~--------------3~---------------|
|o-2~----------------0~----------------6~--------------3~--------------o|
|--2~----------------0~----------------6~--------------3~---------------|

|---------------------------------------------------|
|o-------------------------------------------------o|
|---------------------------------------------------|
|---------------------------------------------------|
|---------------------------------------------------|
|o-------------------------------------------------o|
|-2-0--2-0--2-0--2-0--2-0--2-0--2-0--2-0--2-0--2-0--|
(the first five 2's are hard to hear due to the snare)

|----------------------------------------------------|
|o--------------------------------------------------o|
|----------------------------------------------------|
|----------------------------------------------------|
|--2-0--2-0--2-0--2-0--2-0--2-0--2-0--2-0--2-0--2-0--|
|o-2-0--2-0--2-0--2-0--2-0--2-0--2-0--2-0--2-0--2-0-o|
|--2-0--2-0--2-0--2-0--2-0--2-0--2-0--2-0--2-0--2-0--|
   . .  . .  . .  . .  . .  . .  . .  . .  . .  . .

|-----------------------------------------------------------|
|o-11~--------11-10~--10--10---11~-------11-10~---10--10---o|
|--12~--------12-11~----11--11-12~-------12-11~-----11--11--|
|-----------------------------------------------------------|
|-----------------------------------------------------------|
|o---------------------------------------------------------o|
|-----------------------------------------------------------|
|
|--------13~-----------13~-----------13~-----------13~------|
|o---11-----11-----11-----11-----11-----11-----11-----11---o|
|--14--14-----14-14--14-----14-14--14-----14-14--14-----14--|
|-----------------------------------------------------------|
|-----------------------------------------------------------|
|o---------------------------------------------------------o|
|-----------------------------------------------------------|


|--------13~-----------13~-----------13~-----------13~------|
|o---11-----11-----11-----11-----11-----11-----11-----11---o|
|--14--14-----14-14--14-----14-14--14-----14-14--14-----14--|
|-----------------------------------------------------------|
|-----------------------------------------------------------|
|o---------------------------------------------------------o|
|-----------------------------------------------------------|
 (repeat and fade)
Tap to rate this tab
 
# A B C D E F G H I J K L M N O P Q R S T U V W X Y Z