Guitaretab - guitar tabs
Song name
# A B C D E F G H I J K L M N O P Q R S T U V W X Y Z

Suicide Silence - You Only Live Once tab

-------------------------------------------------------------------------------
			     You Only Live Once - Suicide Silience
-------------------------------------------------------------------------------
Tabbed by:BOB13131366
Email: matty.eade@yahoo.co.uk

Im going to tab this slowly am only doing the intro atm... I am playing this in Drop A 
on an acoustic guitar forgive me if there are any mistakes and feel free to correct me.

INTRO

Guitar 3
B|-----------------------------------||-------------------------------------|
G|-----------------------------------||-------------------------------------|
D|-----------------------------------||-------------------------------------|
A|-----------------7-----------------||-------------------------------------|
E|-6-6-7-6-7-6-6-6---6-6-10-6-6-9-6--||-6-6-7-6-7-6-6-6-9-7----9-7----9-----|
A|-----------------------------------||---------------------13-----13---13--|
  ...................................  .....................................

B|-----------------------------------||-------------------------------------|
G|-----------------------------------||-------------------------------------|
D|-----------------------------------||-------------------------------------|
A|-----------------7-----------------||-------------------------------------|
E|-6-6-7-6-7-6-6-6---6-6-10-6-6-9-6--||-6-6-7-6-7-6-6-6-9-7----9-7----9-----|
A|-----------------------------------||---------------------13-----13---13--|
  ...................................  .....................................
B|---------|
G|---------|
D|---------|
A|---------|
E|-6-6-7-6-|
A|---------|
  ........
[ Tab from: http://www.guitaretab.com/s/suicide-silence/296434.html ]
Guitar 1 and 2
B|----------------------------------------------|
G|----------------------------------------------|
D|----------------------------------------------|
A|----------------------------------------------|
E|-1-1---1-1-1---1-1-1---1-1-1-1-1-1-1--1-1-1-1-|
A|-1-1---1-1-1---1-1-1---1-1-1-1-1-1-1--1-1-1-1-|
                               .......  .......

Guitar 1 and 2
B|----------------------------------------------|
G|----------------------------------------------|
D|----------------------------------------------|
A|----------------------------------------------|
E|-1-1---1-1-1---1-1-1---1-1-1-1-1-1-1--1-1-1-1-|
A|-1-1---1-1-1---1-1-1---1-1-1-1-1-1-1--1-1-1-1-|
                               .......  .......
Guitar 3
B|-----------------------------------||-------------------------------------|
G|-----------------------------------||-------------------------------------|
D|-----------------------------------||-------------------------------------|
A|-----------------7-----------------||-------------------------------------|
E|-6-6-7-6-7-6-6-6---6-6-10-6-6-9-6--||-6-6-7-6-7-6-6-6-9-7----9-7----9-----|
A|-----------------------------------||---------------------13-----13---13--|
  ...................................  .....................................

Guitar 1 and 2
B|---------------------------------------------|
G|---------------------------------------------|
D|---------------------------------------------|
A|---------------------------------------------| X4
E|------0-0------0-0------0-0------------------|
A|-1----0-0-1----0-0-1----0-0-1-2-1-0-4-3-1-0--|
        ...      ...      ...................

I will do the rest another day thats enough to get you started
Related for You Only Live Once tab
You Only Live Once chords by Suicide Silence