Song name
# A B C D E F G H I J K L M N O P Q R S T U V W X Y Z

Suicide Silence - You Only Live Once tab

tuning drop a 7 string aeadgbe

this is what i have so far i'll be adding more soon





e|--------------------------------------------------------------------------|
b|-12-13-12-10--------------------------------------------------------------|
g|-------------12-13-12-10--------------------------------------------------|
d|-------------------------12-13-12-10--------------------------------------|
a|-------------------------------------12-13-12-10--------------------------|
e|--------------------------------------------------12-13-12-10-------------|
a|--------------------------------------------------------------12-13-12-10-|

e|-------------|
b|-------------|
g|-------------|
d|-------------|
a|-------------|
e|-------------|
a|-12~-13~-15~-|
Tap to rate this tab
# A B C D E F G H I J K L M N O P Q R S T U V W X Y Z