Song name
# A B C D E F G H I J K L M N O P Q R S T U V W X Y Z

Suicide Silence - March To The Black Crown tab

Suicide Silence
March To The Black Crown
Drop a tuning (A E A D F# B)

    Both Guitars      Riff 1 x8
B |--------------------------------------------------------|
F#|--------------------------------------------------------|
D |--------------------------------------------------------|
A |--0~----------------------------------------------------|
E |--0~----------------------------------------------------|
A |--0~-----------12121212121212121313131313131313---------|
                (12's and 13's)

    Both Guitars      Riff 2 x8
B |--------------------------------------------------------|
F#|--------------------------------------------------------|
D |--------------------------------------------------------|
A |--0~-----------12121212121212121313131313131313---------|
E |--0~----------------------------------------------------|
A |--0~-----------12121212121212121313131313131313---------|
                 (12's and 13's)

    Guitar 1      Riff 1 x6                            After 6 times
B |--------------------------------------------------------|----|
F#|--------------------------------------------------------|----|
D |--------------------------------------------------------|----|
A |--0~----------------------------------------------------|-0~-|
E |--0~----------------------------------------------------|-0~-|
A |--0~-----------12121212121212121313131313131313---------|-0~-|
  |                                                        |
  | Guitar 2      Riff 1 x4                                |After 4 times
B |--------------------------------------------------------|----|
F#|--------------------------------------------------------|----|
D |--------------------------------------------------------|----|
A |--0~-----------12~--------------13~---------------------|-0~-|
E |--0~-----------12~--------------13~---------------------|-0~-|
A |--0~-----------12~--------------13~------0-0------------|-0~-|
                                            . .
Tap to rate this tab
 
# A B C D E F G H I J K L M N O P Q R S T U V W X Y Z