Song name
# A B C D E F G H I J K L M N O P Q R S T U V W X Y Z

Suicide Silence - Eyes Sewn Shut tab

Tuning: AEADGB

. = Palm mute
b = bend
AH= artificial harmonic


Intro:

B|------------------------------------------------------|-
G|------------------------------------------------------|--
D|------------------------------------------------------|---
A|------------------------------------------------------|----x4
E|-333333------------------333333-------444444----------|---
A|-------2-1-0-2-1-0-2-1-0--------2-1-0--------2-1-0----|--
         . . . . . . . . .        . . .        . . .


0:13

B|------------------------------------------------------|-
G|------------------------------------------------------|--
D|------------------------------------------------------|---
A|------------------------------------------------------|----
E|-------------------------------------222233336666-----|---
A|-6-5-3-6-5-3-5-3-2-5-3-2-6-5-3-6-5-3------------------|--
   . . . . . . . . . . . . . . . . . .

                                                          2ndEnd:
B|------------------------------------------------------|-----------|-
G|------------------------------------------------------|-----------|--
D|------------------------------------------------------|-----------|---
A|------------------------------------------------------|-6--2--3---|----Repeat twice
E|------------------------------------------------------|-6--2--3---|---
A|-6-5-3-6-5-3-5-3-2-5-3-2-6-5-3-6-5-3-666622223333-----|-6--2--3---|--
   . . . . . . . . . . . . . . . . . .                    .  .  .



0:26
B|-------------------------|-------------------------------------|-
G|-------------------------|-------------------------------------|--
D|-------------------------|-------------------------------------|---
A|-------------------------|[x3] then----------------------------|----
E|-------------------------|----------------------222233336666---|---
A|-6-5-3-6-5-3-5-3-2-5-3-2-|----------6-5-3-6-5-3----------------|--
   . . . . . . . . . . . .            . . . . . .

B|-------------------------|-------------------------------|-
G|-------------------------|-------------------------------|--
D|-------------------------|-------------------------------|---
A|-------------------------|[x3] then-6--2--3--------------|----
E|-------------------------|----------6--2--3--------------|---
A|-6-5-3-6-5-3-5-3-2-5-3-2-|----------6--2--3--------------|--
   . . . . . . . . . . . .            .  .  . 


0:39
B|---------------------------------------------------------|---------|-
G|---------------------------------------------------------|---------|--
D|---------------------------------------------------------|---------|---
A|---------------------------------------------------x4----|----2----|----
E|-333333------------------333333-------444444-------------|----2----|---
A|-------2-1-0-2-1-0-2-1-0--------2-1-0--------2-1-0-------|----2----|--
         . . . . . . . . .        . . .        . . .            .


Breakdown:

0:54
B|------------------------------------------------------|-
G|------------------------------------------------------|--
D|------------------------------------------------------|---
A|-6--2-3-5--2-3-------6--2-3-5--2----------------------|----x2
E|-6--2-3-5--2-3-[x3]--6--2-3-5--2-2bAH-----------------|---
A|-6--2-3-5--2-3-------6--2-3-5--2----------------------|--
   .  . . .  . .       .  . . .  .


1:12
B|------------------------------------------------------|-
G|------------------------------------------------------|--
D|------------------------------------------------------|---
A|------------------------------------------------------|----
E|-------------------------------------222233336666-----|---
A|-6-5-3-6-5-3-5-3-2-5-3-2-6-5-3-6-5-3------------------|--
   . . . . . . . . . . . . . . . . . .

                                                        2ndEnd:
B|---------------------------------------------------|-----------|-
G|---------------------------------------------------|-----------|--
D|---------------------------------------------------|-----------|---
A|---------------------------------------------------|-6--2--3---|----Repeat twice
E|---------------------------------------------------|-6--2--3---|---
A|-6-5-3-6-5-3-5-3-2-5-3-2-6-5-3-6-5-3-666622223333--|-6--2--3---|--
   . . . . . . . . . . . . . . . . . .                 .  .  . 


B|------------------------------------------------------|-
G|------------------------------------------------------|--
D|------------------------------------------------------|---
A|------------------------------------------------------|----
E|-6-5-3-6-5-3-5-3-2-5-3-2-6-5-3-6-5-3-222233336666-----|---
A|------------------------------------------------------|--
   . . . . . . . . . . . . . . . . . . 
B|-------------------------------------|------------|-----|-
G|-------------------------------------|------------|-----|--
D|-------------------------------------|-don't play-|-----|---
A|-------------------------------------|-2nd time---|-----|----Play twice
E|-6-5-3-6-5-3-5-3-2-5-3-2-6-5-3-6-5-3-|------------|-----|---
A|-------------------------------------|666622223333|-----|--
   . . . . . . . . . . . . . . . . . .


2nd Breakdown:
1:38

B|----------------------------------------------------------------|-
G|----------------------------------------------------------------|--
D|----------------------------------------------------------------|---
A|-3-0-1-4-0-1-3-0-1-4-0-1-3-0-3bAH-4-0-1-3-0-1-4-0-1-3-0-3bAH----|----
E|-3-0-1-4-0-1-3-0-1-4-0-1-3-0------4-0-1-3-0-1-4-0-1-3-0---------|---
A|-3-0-1-4-0-1-3-0-1-4-0-1-3-0------4-0-1-3-0-1-4-0-1-3-0---------|--
   . . . . . . . . . . . . . .      . . . . . . . . . . .

B|-------------------------------------------------|-
G|-------------------------------------------------|--
D|-------------------------------------------------|---
A|-------------------------------------------------|----
E|-------------------------------------------------|---
A|4444000011113333000011114444000011113333---------|-


B|-------------------------------------------------------------|-
G|-------------------------------------------------------------|--
D|-------------------------------------------------------------|---
A|-------------------------------------------------------------|----
E|--------4444--------3333--------4444--------3333-------------|---
A|00001111----00001111----00001111----00001111------00001111---|--


B|---------------------------------------------------------|-
G|---------------------------------------------------------|--
D|---------------------------------------------------------|---
A|---4-0-1-3-0-1-4-0-1-3-0-1-4-0-1-3-0-1-4-0-1-3-0-1bAH----|----
E|---4-0-1-3-0-1-4-0-1-3-0-1-4-0-1-3-0-1-4-0-1-3-0---------|---
A|---4-0-1-3-0-1-4-0-1-3-0-1-4-0-1-3-0-1-4-0-1-3-0---------|--
     . . . . . . . . . . . . . . . . . . . . . . .

B|---------------------------------------------------------|-
G|---------------------------------------------------------|--
D|---------------------------------------------------------|---
A|---4-0-1-3-0-1-4-0-1-3-0-1-4-0-1-3-0-1-4-0-1-3-0-3bAH----|----
E|---4-0-1-3-0-1-4-0-1-3-0-1-4-0-1-3-0-1-4-0-1-3-0---------|---
A|---4-0-1-3-0-1-4-0-1-3-0-1-4-0-1-3-0-1-4-0-1-3-0---------|--
     . . . . . . . . . . . . . . . . . . . . . . .


2:14

B|-------------------------------------------------------------|-
G|-------------------------------------------------------------|--
D|-------------------------------------------------------------|---
A|-------------------------------------------------------------|----[x4]
E|-333333------------------333333-------444444-----------------|---
A|-------2-1-0-2-1-0-2-1-0--------2-1-0--------2-1-0-----------|--
         . . . . . . . . .        . . .        . . .


2:27
B|------------------------------------------------------|-
G|------------------------------------------------------|--
D|------------------------------------------------------|---
A|------------------------------------------------------|----
E|-------------------------------------222233336666-----|---
A|-6-5-3-6-5-3-5-3-2-5-3-2-6-5-3-6-5-3------------------|--
   . . . . . . . . . . . . . . . . . .

B|------------------------------------------------------|-
G|------------------------------------------------------|--
D|------------------------------------------------------|---
A|-------------------------------------6-2-3------------|----[x2]
E|-------------------------------------6-2-3------------|---
A|-6-5-3-6-5-3-5-3-2-5-3-2-6-5-3-6-5-3-6-2-3------------|--
   . . . . . . . . . . . . . . . . . . . . .



B|------------------------------------------------------|-
G|------------------------------------------------------|--
D|------------------------------------------------------|---
A|------------------------------------------------------|----
E|-6-5-3-6-5-3-5-3-2-5-3-2-6-5-3-6-5-3-222233336666-----|---
A|------------------------------------------------------|--
   . . . . . . . . . . . . . . . . . .

B|------------------------------------------------------|-
G|------------------------------------------------------|--
D|------------------------------------------------------|---
A|-------------------------------------6-2-3------------|----[x2]
E|-6-5-3-6-5-3-5-3-2-5-3-2-6-5-3-6-5-3-6-2-3------------|---
A|-------------------------------------6-2-3------------|--
   . . . . . . . . . . . . . . . . . . . . .



Ending:

B|---------------------------------------|-
G|---------------------------------------|--
D|---------------------------------------|---
A|-6-2-3-3-0-1-0-------------------------|----
E|-6-2-3-3-0-1-0-------------------------|---
A|-6-2-3-3-0-1-0-------------------------|--
   . . . . . . .
Tap to rate this tab
 
# A B C D E F G H I J K L M N O P Q R S T U V W X Y Z