Song name
# A B C D E F G H I J K L M N O P Q R S T U V W X Y Z

Suicide Silence - No Pity For A Coward tab

first part of intro
-------------------------------------------------------------|
-------------------------------------------------------------|
-------------------------------------------------------------|
-------------------------------------------------------------|
0--------------------333---------333---------111-333-111-333-|
0-111111111--000-000-----000-000-----000-000-----------------|


second part of the intro


-------------------------|
-------------------------|
-------------------------|
-------------------------|
---------555---------333-|
-3-0-3-0-----3-0-3-0-----|
then go back to first


-----------------------------------|
-----------------------------------|
-----------------------------------|
-----------------------------------|
---------3---------3---------3-3-3-|
-3-0-3-0-3-3-0-3-0-3-3-0-3-0-3-3-3-|


first and second breakdowns plus solo
-----------------------|
-----------------------|
-----------------------|
-----------------------|
-00---00-00-00---0-0-3-|
-00---00-00-00---0-0-3-|


--------------------------------------|
--------------------------------------|
--------------------------------------|
--------------------------------------|
-00000--00000-00000-00000-0-3-3-0-1-1-|
-00000--00000-00000-00000-0-3-3-0-1-1-|


-----------------13-18-13----------------------------12-16-12-------------|
-------------15----------15----------------------14----------14-----------|
-----------14----------------14----------------13----------------13-------|
--------15----------------------15----------14----------------------14----|
--12-17----------------------------17-12-16----------------------------16-|
--------------------------------------------------------------------------|

----------------13-18-13--------------------------------------------------|
------------15----------15-------------------------------------14-17-14---|
----------14----------------14----------------12-15-12-------15-----------|
-------15----------------------15----------14----------14-17--------------|
-12-17----------------------------17-13-16--------------------------------|
--------------------------------------------------------------------------|

------------13-17-T22P17-13----------------------12-16-T21P16-12----------|
--------15-----------------15-----------------14---------------14---------|
------14----------------------14------------13--------------------13------|
---15---------------------------15--------14------------------------14----|
-17-------------------------------17-12-16----------------------------16--|
--------------------------------------------------------------------------|

----------13-17-T22-P17-13------------------------------------------------|
--------15-----------------15----------------------------------14-17-14---|
------14----------------------14--------------12-15-12-------15-----------|
---15---------------------------15---------14----------14-17--------------|
-17-------------------------------17-13-16--------------------------------|
--------------------------------------------------------------------------|
Tap to rate this tab
 
# A B C D E F G H I J K L M N O P Q R S T U V W X Y Z