Song name
# A B C D E F G H I J K L M N O P Q R S T U V W X Y Z

Suicide Silence - Green Monster tab

Help us improve GuitareTab! Take a short survey!
SuicideSilenceGreenMonsterTheCleansing

Tabbed by joepro(joeprox27b@yahoo.com)
Tuning:7string tuned low to high(ADGCFad)

KEY:x=palm mute
    ^= gohst note

Intro:0:00
|------------------|
|------------------|
|------------------|
|------------------|
|---------------2^-|
|-5-1-3-1-5-1-3----|
|-5-1-3-1-5-1-3----|


|-----------------------------------------------------|
|-----------------------------------------------------|
|-----------------------------------------------------|
|-----------------------------------------------------|
|-----------------------------------------------------|
|---------3---------3-----3--44443333444477773333-|
|-2323---23-23---23-----------------------------|
  x x x x   x x x x   x x
0:08
|-----------------------------------------------------|
|-----------------------------------------------------|
|-----------------------------------------------------|
|-----------------------------------------------------|
|-----------------------------------------------------|
|---------3---------3-----3--444433334444-----------|
|-2323---23-23---23-------------------33332222-|
  x x x x   x x x x   x x


|----------------------------|
|----------------------------|
|----------------------------|
|----------------------------|
|----------------------------|
|---------3---------3-----3--|
|-2323---23-23---23----|
  x x x x   x x x x   x x



|-----------------------------------------------------|
|-----------------------------------------------------|
|-----------------------------------------------------|
|-----------------------------------------------------|
|-----------------------------------------------------|
|---------3---------3-----3--44443333444477773333-|
|-2323---23-23---23-----------------------------|
  x x x x   x x x x   x x

|----------------------------|
|----------------------------|
|----------------------------|
|----------------------------|
|----------------------------|
|---------3---------3-----3--|
|-2323---23-23---23----|
  x x x x   x x x x   x x


|-----------------------------------------------------|
|-----------------------------------------------------|
|-----------------------------------------------------|
|-----------------------------------------------------|
|-----------------------------------------------------|
|---------3---------3-----3--444433334444-----------|
|-2323---23-23---23-------------------33332222-|
  x x x x   x x x x   x x
0:25
|------------------------|
|------------------------|
|------------------------|
|------------------------|
|-------------2^---------|
|-5--1--3--1-----1--3--1-|
|-5--1--3--1-----1--3--1-|
  x  x  x  x     x  x  x

|------------------------|x3
|------------------------|
|------------------------|
|------------------------|
|------------------------|
|-5--1--3--1-----1--3--1-|
|-5--1--3--1-----1--3--1-|
  x  x  x  x     x  x  x

|--------------|
|--------------|
|--------------|
|--------------|
|--------------|
|-5--1--3--1-1-|
|-5--1--3--1-1-|
  x  x  x  x x
0:46
|------------------------------------------|x4
|------------------------------------------|
|------------------------------------------|
|------------------------------------------|
|------------------------------------------|
|-04444033334///////9--31013101-|
|--------------------------31013101-|
                           x x x x x x x x
1:04
|-------------------------|
|-------------------------|
|-------------------------|
|-------------------------|
|-------------------------|
|-04444033334///////9-|
|-------------------------|


|---------------------------------------|x3
|---------------------------------------|
|---------------------------------------|
|---------------------------------------|
|---------------------------------------|
|-0444403333-04444033334///////9-|
|---------------------------------------|

1:17
|------------------------|
|------------------------|
|------------------------|
|------------------------|
|------------------------|
|-0444403333--0301-|
|----------------0301-|



|-------------------------|
|-------------------------|
|-------------------------|
|-------------------------|
|-------------------------|
|-04444033334///////9-|
|-------------------------|


|---------------------------------------|
|---------------------------------------|
|---------------------------------------|
|---------------------------------------|
|---------------------------------------|
|-0444403333-04444033334///////9-|
|---------------------------------------|


|---------------|
|---------------|
|---------------|
|---------------|
|---------------|
|-0444403333-|
|---------------|

1:23
|------------------------|x3
|------------------------|
|------------------------|
|------------------------|
|------------------------|
|-3---1-1---0-0--3-31-1-|
|-3---1-1---0-0--3-31-1-|
  x   x x   x x  x x x x

|---------------------|
|---------------------|
|---------------------|
|---------------------|
|---------------------|
|-3---1-1---0-0--31--|
|-3---1-1---0-0--31--|
  x   x x   x x  x x 


1:35
|-------------------|
|-------------------|
|-------------------|
|-------------------|
|-------------------|
|-0---00---000000-|
|-0---00---000000-|
  x   xx   xx xx xx

|--------------------|
|--------------------|
|--------------------|
|--------------------|
|--------------------|
|-00---00---000000-|
|-00---00---000000-|
  xx   xx   xx xx xx

|-------------------|
|-------------------|
|-------------------|
|-------------------|
|-------------------|
|-0---00---000000-|
|-0---00---000000-|
  x   xx   xx xx xx

|---------------------|
|---------------------|
|---------------------|
|---------------------|
|---------------------|
|-0---00---0000000-|
|-0---00---0000000-|
  x   xx   xx xx xx x
1:47
|---------------------|x11
|---------------------|
|---------------------|
|---------------------|
|---------------------|
|-31--31--3-4-5-4-3-|
|-31--31------------|
 [--------]palm mute at certain times

2:12
|---|
|---|
|---|
|---|
|---|
|-1-|
|-1-|
  x

2:13
|------------------------------------------|x4
|------------------------------------------|
|------------------------------------------|
|------------------------------------------|
|------------------------------------------|
|-04444033334///////9--31013101-|
|--------------------------31013101-|
                           x x x x x x x x
2:32
|-----------------|
|-----------------|
|-----------------|
|-----------------|
|-----------------|
|-31013101-|
|-31013101-|

2:34
|---------------|
|---------------|
|---------------|
|---------------|
|---------------|
|---------3-----|
|-2323---23-|
  x x x x   x x

|-----------------------------------------------------|
|-----------------------------------------------------|
|-----------------------------------------------------|
|-----------------------------------------------------|
|-----------------------------------------------------|
|---------3---------3-----3--44443333444477773333-|
|-2323---23-23---23-----------------------------|
  x x x x   x x x x   x x

|-----------------------------------------------------|
|-----------------------------------------------------|
|-----------------------------------------------------|
|-----------------------------------------------------|
|-----------------------------------------------------|
|---------3---------3-----3--444433334444-----------|
|-2323---23-23---23-------------------33332222-|
  x x x x   x x x x   x x


|----------------------------|
|----------------------------|
|----------------------------|
|----------------------------|
|----------------------------|
|---------3---------3-----3--|
|-2323---23-23---23----|
  x x x x   x x x x   x x



|-----------------------------------------------------|
|-----------------------------------------------------|
|-----------------------------------------------------|
|-----------------------------------------------------|
|-----------------------------------------------------|
|---------3---------3-----3--44443333444477773333-|
|-2323---23-23---23-----------------------------|
  x x x x   x x x x   x x

|----------------------------|
|----------------------------|
|----------------------------|
|----------------------------|
|----------------------------|
|---------3---------3-----3--|
|-2323---23-23---23----|
  x x x x   x x x x   x x

|-----------------------------------------------------|
|-----------------------------------------------------|
|-----------------------------------------------------|
|-----------------------------------------------------|
|-----------------------------------------------------|
|---------3---------3-----3--444433334444-----------|
|-2323---23-23---23-------------------33332222-|
  x x x x   x x x x   x x
2:56
|-------------------------|
|-------------------------|
|-------------------------|
|-------------------------|
|-------------------------|
|-04444033334///////9-|
|-------------------------|


|---------------------------------------|
|---------------------------------------|
|---------------------------------------|
|---------------------------------------|
|---------------------------------------|
|-0444403333-04444033334///////9-|
|---------------------------------------|


|---------------|
|---------------|
|---------------|
|---------------|
|---------------|
|-0444403333-|
|---------------|

3:03
|------------------------|x3
|------------------------|
|------------------------|
|------------------------|
|------------------------|
|-3---1-1---0-0--3-31-1-|
|-3---1-1---0-0--3-31-1-|
  x   x x   x x  x x x x


|-----------------------|
|-----------------------|
|-----------------------|
|-----------------------|
|-----------------------|
|-3---1-1---0-0--3-31--|
|-3---1-1---0-0--3-31--|
  x   x x   x x  x x x
3:16
|--------------------|x3
|--------------------|
|--------------------|
|--------------------|
|--------------------|
|-00---00---000000-|
|-00---00---000000-|
  xx   xx   xx xx xx


|------------------|
|------------------|
|------------------|
|------------------|
|------------------|
|-00---00---0000-|
|-00---00---0000-|
  xx   xx   xx x x
3:27
|--------------------|x4
|--------------------|
|--------------------|
|--------------------|
|--------------------|
|-00--00--00--00--00-|
|-00--00--00--00--00-|
  xx  xx  xx  xx  xx

some pick scrapes and feedback throughout the rest of the song.

Sounds almost perfect. Write comments!
Related for Green Monster tab