Song name
# A B C D E F G H I J K L M N O P Q R S T U V W X Y Z

Suidakra - The Distant Call tab

(Throughout this tab I stuck to playing it with one guitar, the one I wanted to play in 
these parts!)


Quite an easy song to play except for the rhythm in the clean parts, but I'm not sure 
about these anyway!


VERSE (clean): (think of this more as ONE way to play it, since it's quite hard to 
distinguish the guitars here)

E|----0-0--0-5--0-0--0-0--0-0---0-0--0-5--0-0--0-0--0-0--------------------------------------|
B|--------------------------------------------------------3h5--5h7--7-7--7-7/8--8------------|
G|-------------------------------------------------------------------------------------------|
D|------------------------------------------------------0------------------------------------|
A|--0-------------------------0--------------------------------------------------------------|
E|-------------------------------------------------------------------------------------------|


PRE-CHORUS (distorted):

E|-------------------------------------------------------------------------------------------|
B|-------------------------------------------------------------------------------------------|
G|--9-9p7-9----------------------------------------------------------------------------------|
D|-----------7--5--7-9--7--5--9--7--9--7-7p5-7-9--7p5----------------------------------------|
A|-----------------------------------------------------7-------------------------------------|
E|-------------------------------------------------------------------------------------------|


CHORUS (distorted):

E|-------------------------------------------------------------------------------------------|
B|----------------------------------------------------------------------10-12--13-12--8------|
G|------9--9p7--5--7--9-9-----7--7p5--4--5--7-7----7-9--10-10h12-10h12-----------------------|
D|---7---------------------5-----------------------------------------------------------------|
A|-------------------------------------------------------------------------------------------|
E|-------------------------------------------------------------------------------------------|


E|-------------------------------------------------------------------------------------------|
B|-------------------------------------------------------------------------------------------|
G|------9--9p7--5--7--9-9-----7--7p5--4--5--7-7----7-9--10-10h12--10-9-10-9--7--5------------|
D|---7---------------------5-----------------------------------------------------------------|
A|-------------------------------------------------------------------------------------------|
E|-------------------------------------------------------------------------------------------|



END OF CHORUS (distorted):

E|-------------------------------------------------------------------------------------------|
B|-------------------------------------------------------------------------------------------|
G|------9p7-9p7-5--7----------9p7-9p7-5--7---------------------------------------------------|
D|---7----------------5--7-7----------------9--5---------------------------------------------|
A|-------------------------------------------------------------------------------------------|
E|-------------------------------------------------------------------------------------------|


E|-------------------------------------------------------------------------------------------|
B|-------------------------------------------------------------------------------------------|
G|------9p7-9p7--5--7-----------9p7-9---12--14h16p14--12--14---------------------------------|
D|---7------------------5--7--7--------------------------------------------------------------|
A|-------------------------------------------------------------------------------------------|
E|-------------------------------------------------------------------------------------------|



PRE-CHORUS 2 (clean) :

E|-8-----8-------8--7-----7-------7--5-----5-------5--10-----12----------12------------------|
B|---5-5---5-5-5------5-5---5-5-5------5-5---5-5-5-------8-8----10-10-10---------------------|
G|-------------------------------------------------------------------------------------------|
D|-------------------------------------------------------------------------------------------|
A|-------------------------------------------------------------------------------------------|
E|-------------------------------------------------------------------------------------------|


BRIDGE (distorted):

E|-------------------------------------------------------------------------------------------|
B|-------------------------------------------------------------------------------------------|
G|--------------------------------------------5----------------------------------------------|
D|---7----5-5--5---7---7--5---5--7---5-5---7--5--5--7----------------------------------------|
A|---7----5-5--5---7---7--5---5--7---5-5---7--3--5--7----------------------------------------|
E|---5----3-3--3---5---5--3---3--5---3-3---5-----3--5----------------------------------------|
          . .  .                     . .

Structure:

VERSE
PRE-CHORUS
CHORUS
END OF CHORUS
VERSE
PRE-CHORUS
PRE-CHORUS 2
CHORUS
BRIDGE
CHORUS
END OF CHORUS
Tap to rate this tab
 
# A B C D E F G H I J K L M N O P Q R S T U V W X Y Z