Song name
# A B C D E F G H I J K L M N O P Q R S T U V W X Y Z

Suidakra - Dead Mans Reel tab

http://www.youtube.com/watch?v=oIjxQhurjGw

Tuning: half step down   

Intro(optional):

eb|---------------------------------------------------------------------------|
Bb|---------------------------------------------------------------------------|
Gb|---------------------------------------------------------------------------|
Db|---------------------------------------------------------------------------|
Ab|---------------------10-7---------9-6---------5b(x4)---7-------------------|
Eb|--6p4-0--0---0-0-0---------0-0-0-------0-0-0-------------------------------|



eb|---------------------------------------------------------------------------|
Bb|---------------------------------------------------------------------------|
Gb|---------------------------------------------------------------------------|
Db|---------------------------------------------------------------------------|
Ab|----------10-7----------9-6-7---6-7--6--------------------6-7--------------|
Eb|--0-0-0---------0-0-0--------------------7-6---2--0-0-0--------------------|




Part 1:

eb|---------------------------------------------------------------------------|
Bb|---------------------------------------------------------------------------|
Gb|------13-------------------------------------------------------------------|
Db|--13------13--11--9-11-13---9--6---6-8-9--8-9/13--11-9-8---9-8-6\2/13------|
Ab|---------------------------------------------------------------------------|
Eb|---------------------------------------------------------------------------|




eb|---------------------------------------------------------------------------|
Bb|---------------------------------------------------------------------------|
Gb|-----13-13-----------------------------------------------------------------|
Db|-----------13--11-9--11--13--9--6--6-8-9--8-9/13--11-9-11----11-13-14---13-|
Ab|---------------------------------------------------------------------------|
Eb|---------------------------------------------------------------------------|



eb|---------------------------------------------------------------------------|
Bb|---------------------------------------------------------------------------|
Gb|--13--13-------------------------------------------------------------------|
Db|----------13--11--9-11-13---9--6---6-8-9--8-9/13--11-9-8---9-8-6\2/13------|
Ab|---------------------------------------------------------------------------|
Eb|---------------------------------------------------------------------------|




eb|--------------------------------------------------------------------------------------|
Bb|--------------------------------------------------------------------------------------|
Gb|13-13-------------------------------------------------------------------11--13--11----|
Db|------13--11-9--11--13--9--6--6-8-9--8-9/13--11-9-11--11-13-14---13-14-------------14-|
Ab|--------------------------------------------------------------------------------------|
Eb|--------------------------------------------------------------------------------------|


Part 2:

eb|--------------------------------------------------------------------|
Bb|--------------------------------------------------------------------|
Gb|---------------------------9----------------13-11-9-----------------|
Db|--11--11-9--11--11-9--11-------11--11-9--11-----------11-11-9--11---|
Ab|--------------------------------------------------------------------|
Eb|--------------------------------------------------------------------|




eb|-------------------------------------------------------------------------------|
Bb|-------------------------------------------------------------------------------|
Gb|-----------9--11/13--11-9--11-9-8------------------------9---------------------|
Db|--11-9-11--------------------------9--11--11-9--11--11-9----11-11--11--9----9--|
Ab|-------------------------------------------------------------------------11----|
Eb|-------------------------------------------------------------------------------|



eb|---------------------------------------------------------------------------|
Bb|----------------------------12---------------------------------------------|
Gb|----------------------8-9-------11-9-11---9-8-9-8--------------------------|
Db|--11---11--9--11--11-------------------------------9-----------------------|
Ab|---------------------------------------------------------------------------|
Eb|---------------------------------------------------------------------------|


Part 3:

eb|---------------------11-12-11----------------------------------------------|
Bb|--------14----12-14------------14--12--14----------------------------------|
Gb|-----13------------------------------------13/11--9-11-13-11-9-------------|
Db|-11--------------------------------------------------------------13--9-----|
Ab|---------------------------------------------------------------------------|
Eb|---------------------------------------------------------------------------|



eb|----------------------------------------------------------------------|
Bb|------------------------9---------------------------------------------|
Gb|-----------------8-9-11---11--9-8-9-8---------------------------------|
Db|-11-11-9-11-9-11-----------------------9---6--9-11--13-14--16b18------|
Ab|----------------------------------------------------------------------|
Eb|----------------------------------------------------------------------|



Part 4:

eb|---------------------------------------------------------------------------------|
Bb|---------------------------------------------------------------------------------|
Gb|---------------------11----------------------------------------------------------|
Db|--11-11-13-14--13-14-----14-13--14--13--9-11--11-13-14-13-14--18-16-14-16-14--9--|
Ab|---------------------------------------------------------------------------------|
Eb|---------------------------------------------------------------------------------|



Part 5:

eb|---------------------------------------------------------------------------|
Bb|----------12--14-----------------------------------------------------------|
Gb|------13----------11--13--14-13-11-----------------------------------------|
Db|-11--------------------------------14--11--9-------------------------------|
Ab|---------------------------------------------------------------------------|
Eb|---------------------------------------------------------------------------|




eb|--------------------------------------------------------------------------|
Bb|-----------------------12-14----------------------------------------------|
Gb|------13-14-13-11--13----------11-13-14-13--9-----------------------------|
Db|--11-------------------------------------------11-------------------------|
Ab|--------------------------------------------------------------------------|
Eb|--------------------------------------------------------------------------|



Part 6:

eb|---------------------------------------------------------------------------|
Bb|---------------------------------------------------------------------------|
Gb|-------9-11--13--11-9-11-9--------------9--11--13/16-18---16h18p16---------|
Db|--9-11----------------------11-9--9--11------------------------------------|
Ab|---------------------------------------------------------------------------|
Eb|---------------------------------------------------------------------------|



eb|---------------------------------------------------------------------------|
Bb|---------------------------------------------------------------------------|
Gb|---18-16--13--16-14-13--11--9----------------------------------------------|
Db|------------------------------11\9-----------------------------------------|
Ab|---------------------------------------------------------------------------|
Eb|---------------------------------------------------------------------------|




eb|---------------------------------------------------------------------------|
Bb|---------------------------------------------------------------------------|
Gb|-------9--11-13--11-9-11--9-11-9-------9-11--13-11-9-11-9------------------|
Db|-9-11-----------------------------9-11--------------------11-9-------------|
Ab|---------------------------------------------------------------------------|
Eb|---------------------------------------------------------------------------|



Ending:

eb|----------------------------------------------------------------------|
Bb|----------------------------------------------------------------------|
Gb|------------4-3-4-6--4-3--1-------------------------------------------|
Db|-----6-4-6--------------------6-4--6-4--------------------------------|
Ab|----------------------------------------4-----------------------------|
Eb|-------------------------------------------4--2-4---------------------|




eb|---------------------------------------------------------------------------|
Bb|---------------------------------------------------------------------------|
Gb|----------4-3-4-6-4----12-10---4-6-4-3-------------------------------------|
Db|--6-4-6--------------------------------4--6--4v--6-------------------------|
Ab|---------------------------------------------------------------------------|
Eb|---------------------------------------------------------------------------|




eb|--------------------------------------------------------------------------------|
Bb|--------------------------------------------------------------------------------|
Gb|--------4-3-4--6--4-3------------------------------4-3-4--6-4---8-6-4-6-4-3-----|
Db|-6-4-6----------------4-6--4-6-4-------4-6---4-6----------------------------4-6-|
Ab|----------------------------------6---------------------------------------------|
Eb|--------------------------------------------------------------------------------|
Tap to rate this tab
# A B C D E F G H I J K L M N O P Q R S T U V W X Y Z