Song name
# A B C D E F G H I J K L M N O P Q R S T U V W X Y Z

Suis La Lune - Wishes And Hopes tab

https://www.facebook.com/suislalunee

     D|-----------10--------------10----|
     A|---------7---------------7-------|
GTR F#|------11------11------11------11-|
 1   D|-8--8------------8--8------------|
     A|---------------------------------|
     D|---------------------------------|

     D|-----------10------10------10---|
     A|---------7--------------------7-|
GTR F#|------11------11------11--------|
 1   D|-7--7------------7-------7------|
     A|--------------------------------|
     D|--------------------------------|

     D|-----------10--------------10----|
     A|---------7---------------7-------|
GTR F#|------11------11------11------11-|
 1   D|-8--8------------8--8------------|
     A|---------------------------------|
     D|---------------------------------|

     D|-----------10------10------10---|
     A|---------7--------------------7-|
GTR F#|------11------11------11--------|
 1   D|-7--7------------7-------7------|
     A|--------------------------------|
     D|--------------------------------|

     D|-10-----------------------------|
     A|-9------------------------------|
GTR F#|-11-----------------------------|
 2   D|-7------------------------------|
     A|--------------------------------|
     D|--------------------------------|

     D|-----------10--------------10----|
     A|---------7---------------7-------|
GTR F#|------11------11------11------11-|
 1   D|-8--8------------8--8------------|
     A|---------------------------------|
     D|---------------------------------|

     D|-----------------------------------|
     A|-8--8--8--8--8--8--8---8--8--8--8--|
GTR F#|-11-11-11-11-11-11-10--11-11-11-11-|
 2   D|-8--8--8--8--8--8--8---8--8--8--8--|
     A|-----------------------------------|
     D|-----------------------------------|

     D|-----------10------10------10---|
     A|---------7--------------------7-|
GTR F#|------11------11------11--------|
 1   D|-7--7------------7-------7------|
     A|--------------------------------|
     D|--------------------------------|

     D|----------------------|
     A|-7-7-7-7-7--7-7-7-7-7-|
GTR F#|-6-6-6-6-6--6-6-6-6-6-|
 2   D|-7-7-7-7-7--5-5-5-5-5-|
     A|----------------------|
     D|----------------------|

     D|-----------10--------------10----|
     A|---------7---------------7-------|
GTR F#|------11------11------11------11-|
 1   D|-8--8------------8--8------------|
     A|---------------------------------|
     D|---------------------------------|

     D|-----------------------------------|
     A|-8--8--8--8--8--8--8---8--8--8--8--|
GTR F#|-11-11-11-11-11-11-10--11-11-11-11-|
 2   D|-8--8--8--8--8--8--8---8--8--8--8--|
     A|-----------------------------------|
     D|-----------------------------------|

     D|-----------10--------------|
     A|---------7---------7-7-7-7-|
GTR F#|------11------11---6-6-6-6-|
 1   D|-7--7------------7-7-7-7-7-|
     A|---------------------------|
     D|---------------------------|
Tap to rate this tab
 
# A B C D E F G H I J K L M N O P Q R S T U V W X Y Z