Song name
# A B C D E F G H I J K L M N O P Q R S T U V W X Y Z

Suis La Lune - Hands Are For Helping tab

-------------------------------------------------------------------------------
                             HANDS ARE FOR HELPING - Suis La Lune
-------------------------------------------------------------------------------
Tabbed by: mairi
E-mail: mairi.elise@hotmail.co.uk

Tuning: EADGBe

VERSE 1

GUITAR 1 (left)

e|-------------------------------|
B|-------------------------------|
G|-------14-------------13---14--|  x2
D|------------11-----------------|
A|--12-------------12------------|
E|-------------------------------|

e|----------0-------------|
B|---------------------0--|
G|-------------11---------|  x4
D|------13---------13-----|
A|--11--------------------|
E|------------------------|

GUITAR 2 (right)

e|--16---------------------------|
B|----------------------17---19--|
G|-------16--------18------------|  x2
D|------------19-----------------|
A|-------------------------------|
E|-------------------------------|

e|----------0--------------|
B|--16---------------------|
G|-----------------13------|  x4
D|------13-----13------13--|
A|-------------------------|
E|-------------------------|



CHORUS

GUITAR 1 (left)

I have no idea what's going on here but I play something like this:

e|--0---0--|
B|--0---0--|
G|--9---8--|  x2
D|--9---9--|
A|---------|
E|---------|

e|----------------------------0-----------------|
B|--14-14-14--16------------------12------------|
G|----------------------------------------------|  x2
D|--11-11-11--13---------13------------14---13--|
A|----------------------------------------------|
E|-------------------0--------------------------|

GUITAR 2 (right)

e|--------16------14----12-----------------------|
B|---------------------------16---12---14-12-----|
G|--13-14------14----14----------------------13--|  x2
D|-----------------------------------------------|
A|-----------------------------------------------|
E|-----------------------------------------------|

e|------------12------/14----11--------11--------|
B|-------10--------10------------9---------9-----|
G|--11------------------------------9---------9--|  x2
D|-----------------------------------------------|
A|-----------------------------------------------|
E|-----------------------------------------------|



VERSE 2

GUITAR 1 (left)

e|------------|
B|--7-9-10-9--|
G|------------|  x3
D|------------|
A|------------|
E|------------|

e|------7--|
B|---------|
G|--9-8----|  x4
D|---------|
A|---------|
E|---------|

GUITAR 2 (right)

e|--------------------12----------14-----|
B|-----12-14-12----12----12----12----12--|
G|--14----------14----------14-----------|
D|---------------------------------------|
A|---------------------------------------|
E|---------------------------------------|

e|-------11------11------11---------|
B|--9-------9-------9-------9----9--|
G|----11------11------11------11----|
D|----------------------------------|
A|----------------------------------|
E|----------------------------------|



SONG ORDER

V1 x4
Ch x2
V2 x8
Ch x2


************************************

| /   slide up
| \   slide down
| h   hammer-on
| p   pull-off
| ~   vibrato
| +   harmonic
| x   Mute note
| b   Bend
| pb  Pre-bend
| br  Bend release
| pbr Pre-bend release
| brb Bend release bend

************************************
Tap to rate this tab
 
# A B C D E F G H I J K L M N O P Q R S T U V W X Y Z