Song name
# A B C D E F G H I J K L M N O P Q R S T U V W X Y Z

Suitei Shojo - Shouchi No Suke tab

Intro

|----------------------------------------------|
|----------------------------------------------|
|--------------5-5---5-----7-7---7-----9--9--9-|
|--7-7---7-----5-5---5-----7-7---7-----7--7--7-|  x4
|--7-7---7-----3-3---3-----5-5---5-----7--7--7-|
|--5-5---5-------------------------------------|



Part1
|----------------------------------------------|
|----------------------------------------------|
|--------------5-5---5-----7-7---7-----9--9--9-|
|--7-7---7-----5-5---5-----7-7---7-----7--7--7-|  x3
|--7-7---7-----3-3---3-----5-5---5-----7--7--7-|
|--5-5---5-------------------------------------|

then

|--------------|---------------------------------------------|
|--------------|---------------------------------------------|
|--10---7---9--|-------------5-5---5-----7-7---7-----9--9--9-|
|--10---7---9--|-7-7---7-----5-5---5-----7-7---7-----7--7--7-|
|--8----5---7--|-7-7---7-----3-3---3-----5-5---5-----7--7--7-|
|--------------|-5-5---5-------------------------------------|


Bridge
|---------------------------------------------|
|---------------------------------------------|
|-------------5-5---5-----7-7---7-----9--9--9-|
|-7-7---7-----5-5---5-----7-7---7-----7--7--7-|
|-7-7---7-----3-3---3-----5-5---5-----7--7--7-|
|-5-5---5-------------------------------------|




Part1
|----------------------------------------------|
|----------------------------------------------|
|--------------5-5---5-----7-7---7-----9--9--9-|
|--7-7---7-----5-5---5-----7-7---7-----7--7--7-|  x3
|--7-7---7-----3-3---3-----5-5---5-----7--7--7-|
|--5-5---5-------------------------------------|

then

|--------------|---------------------------------------------|
|--------------|---------------------------------------------|
|--10---7---9--|-------------5-5---5-----7-7---7-----9--9--9-|
|--10---7---9--|-7-7---7-----5-5---5-----7-7---7-----7--7--7-|
|--8----5---7--|-7-7---7-----3-3---3-----5-5---5-----7--7--7-|
|--------------|-5-5---5-------------------------------------|


Bridge
|---------------------------------------------|
|---------------------------------------------|
|-------------5-5---5-----7-7---7-----9--9--9-|
|-7-7---7-----5-5---5-----7-7---7-----7--7--7-|
|-7-7---7-----3-3---3-----5-5---5-----7--7--7-|
|-5-5---5-------------------------------------|



Bridge part 2
|---------------------|
|---------------------|
|------10--------9----|
|--7---10---10---9----|
|--7---8----10---7----|
|--5--------8---------|


part 2(play how you hear)

|--------------|         |--------------|
|--------------|         |--------------|
|--------------|         |--10---7---9--|
|--3---5---7---| x4 then |--10---7---9--|
|--3---5---7---|         |--8----5---7--|
|--1---3---5---|         |--------------|


Bridge

|----------------------------------------------|
|----------------------------------------------|
|--------------5-5---5-----7-7---7-----9--9--9-|
|--7-7---7-----5-5---5-----7-7---7-----7--7--7-|  x4
|--7-7---7-----3-3---3-----5-5---5-----7--7--7-|
|--5-5---5-------------------------------------|


part1

|----------------------------------------------|
|----------------------------------------------|
|--------------5-5---5-----7-7---7-----9--9--9-|
|--7-7---7-----5-5---5-----7-7---7-----7--7--7-|  x3
|--7-7---7-----3-3---3-----5-5---5-----7--7--7-|
|--5-5---5-------------------------------------|

then

|--------------|---------------------------------------------|
|--------------|---------------------------------------------|
|--10---7---9--|-------------5-5---5-----7-7---7-----9--9--9-|
|--10---7---9--|-7-7---7-----5-5---5-----7-7---7-----7--7--7-|
|--8----5---7--|-7-7---7-----3-3---3-----5-5---5-----7--7--7-|
|--------------|-5-5---5-------------------------------------|


Bridge
|---------------------------------------------|
|---------------------------------------------|
|-------------5-5---5-----7-7---7-----9--9--9-|
|-7-7---7-----5-5---5-----7-7---7-----7--7--7-|x4
|-7-7---7-----3-3---3-----5-5---5-----7--7--7-|
|-5-5---5-------------------------------------|

Bridge part 2
|---------------------|
|---------------------|
|------10--------9----|
|--7---10---10---9----|
|--7---8----10---7----|
|--5--------8---------|

part 2(play how you hear)

|--------------|         |--------------|
|--------------|         |--------------|
|--------------|         |--10---7---9--|
|--3---5---7---| x4 then |--10---7---9--|
|--3---5---7---|         |--8----5---7--|
|--1---3---5---|         |--------------|


(Solo)


part 2(play how you hear) again

|--------------|         |--------------|
|--------------|         |--------------|
|--------------|         |--10---7---9--|
|--3---5---7---| x7 then |--10---7---9--|
|--3---5---7---|         |--8----5---7--|
|--1---3---5---|         |--------------|



Bridge
|---------------------------------------------|
|---------------------------------------------|
|-------------5-5---5-----7-7---7-----9--9--9-|
|-7-7---7-----5-5---5-----7-7---7-----7--7--7-|x4
|-7-7---7-----3-3---3-----5-5---5-----7--7--7-|
|-5-5---5-------------------------------------|



END


http://www.suiteishojo.com/
Tap to rate this tab
# A B C D E F G H I J K L M N O P Q R S T U V W X Y Z