Guitaretab - guitar tabs
Song name
# A B C D E F G H I J K L M N O P Q R S T U V W X Y Z

Sullivan - Dig Me Up tab

-------------------------------------------------------------------------------
			     Dig Me Up - Sullivan
-------------------------------------------------------------------------------
Tabbed by: Stephen McFall
Email: smboo28@aim.com

Tuning: Gtr. 1 Standard or Drop D as you donít use bottom string
        Gtr. 2 Drop D (D,A,D,G,B,e)
        Gtr. 3 (Acoustic) (E,A,D,Ab,Bb,E)
        Gtr. 4 Drop D (D,A,D,G,B,e)
Chorus Gtr. 1 (Distortion)
e|-------------------------2---4-----------|
B|---------------2-3---3-----3---3---------|
G|-3---3---3---3-----4---4----------play 3x|
D|---4---4---4-----------------------------|
A|-----------------------------------------|
E|-----------------------------------------|
then
e|---------------------------------------|
B|2-2-2-2-2-2-2--------------------------|
G|--------------4-4-4-4-3-3-3-3-3--------|
D|--------------------------------4~-----|
A|---------------------------------------|
E|---------------------------------------|
Chorus Gtr. 2 & 4 (Distortion)
e|--------------------------------------------|
B|--------------------------------------------|
G|--------------------------------------------|
D|-4-4-4-4-4-4-4-4/9-9-9-9/12-12-12-12-play 2x|
A|-4-4-4-4-4-4-4-4/9-9-9-9/12-12-12-12--------|
E|-4-4-4-4-4-4-4-4/9-9-9-9/12-12-12-12--------|
then
e|-------------------------------------------------------------------|
B|-------------------------------------------------------------------|
G|---------------------------------6-6-6-6-6-6-6-6-6-6-6-6-6-6-6-6---|
D|-4-4-4-4-4-4-4-4/9-9-9-9-9-9-9-9-6-6-6-6-6-6-6-6-6-6-6-6-6-6-6-6-4~|
A|-4-4-4-4-4-4-4-4/9-9-9-9-9-9-9-9-4-4-4-4-4-4-4-4-4-4-4-4-4-4-4-4-4~|
E|-4-4-4-4-4-4-4-4/9-9-9-9-9-9-9-9---------------------------------4~|
Verse Gtr. 3
e|-------------------------------------------|
B|-------0--------0-------0-------0----------|
G|-10-10-0-10-8-8-0-8-7-7-0-7-6-6-0-6-play 3x|
D|-8--8--8--8-6-6-6-6-5-5-5-5-4-4-4-4--------|
A|-9--9--9--9-7-7-7-7-6-6-6-6-5-5-5-5--------|
E|-------------------------------------------|
then
e|---------------------------------|
B|---------------------------------|
G|-5-5-5-5-5-5-5-5-5-5-5-5-5-5-5-5-|
D|-3-3-3-3-3-3-3-3-3-3-3-3-3-3-3-3-|
A|-4-4-4-4-4-4-4-4-4-4-4-4-4-4-4-4-|
E|---------------------------------|
Verse 1 Gtr. 1 (Clean)
e|------------------------------------------------------------------------|
B|-------2--------------2-2-2-2-2-2-2---------------2-2-------------------|
G|-1h3-3---4-3--3-3\1-1---------------4-4-4-4-3-3-3-----------------------|
D|------------------------------------------------------------------------|
A|------------------------------------------------------------------------|
E|------------------------------------------------------------------------|
Verse 1 Gtr. 2 (Clean)
e|-4-4-4-4-4-4-4-4-4-4-4-2-2-2-6-6----------------------------------------|
B|------------------------------------------------------------------------|
G|------------------------------------------------------------------------|
D|------------------------------------------------------------------------|
A|------------------------------------------------------------------------|
E|------------------------------------------------------------------------|
Play Chorus again
Gtr. 3 repeat verse part
Verse 2 Gtr. 1 (Clean)
e|---------------------------------------------------------------------------|
B|----------------2-------------2-------------2-2-2-2-2-2-2---------------2-2|
G|-3-1------1h3-3---4-3---1h3-3---4-3-3-3p1-1---------------4-4-4-4-3-3-3----|
D|-----4--4-------------4----------------------------------------------------|
A|---------------------------------------------------------------------------|
E|---------------------------------------------------------------------------|

Verse 2 Gtr. 2 (Overdrive w/ EBOW)
e|---------------------------------------------------------------------------|
B|---------------------------------------------------------------------------|
G|---------------------------------------------------------------------------|
D|-4~~~/11~~~~\/11~~~~\/9~~9~~/10~/11~~\4~~~---------------------------------|
A|---------------------------------------------------------------------------|
E|---------------------------------------------------------------------------|
then
e|-4-4-4-4-4-4-4-4-4-4-4-2-2-2-6-6-------------------------------------------|
B|---------------------------------------------------------------------------|
G|---------------------------------------------------------------------------|
D|---------------------------------------------------------------------------|
A|---------------------------------------------------------------------------|
E|---------------------------------------------------------------------------|
Verse 2 Gtr. 4 (Distorted)
e|---------------------------------------------------------------------------|
B|---------------------------------------------------------------------------|
G|-6-6-6-6-6-6-6-6-6-6-6-6-6-6-6-6-------------------------------------------|
D|-6-6-6-6-6-6-6-6-6-6-6-6-6-6-6-6-------------------------------------------|
A|-4-4-4-4-4-4-4-4-4-4-4-4-4-4-4-4-------------------------------------------|
E|---------------------------------------------------------------------------|
Play Chorus again

Post Chorus Gtrs. 2 & 4 (Distorted)
e|---------------------------------------------------------------------------|
B|---------------------------------------------------------------------------|
G|---------------------------------------------------------------------------|
D|-2-2-2-2-2-2-2-2-1-1-1-1-1-------------------------------------------------|
A|-2-2-2-2-2-2-2-2-1-1-1-1-1-------------------------------------------------|
E|-2-2-2-2-2-2-2-2-1-1-1-1-1-------------------------------------------------|
[ Tab from: http://www.guitaretab.com/s/sullivan/109336.html ]
Guitar Solo Gtr. 1 (Distorted)
e|---------------------------------------------------------------------------|
B|--------------14-------------------------14-14-14b15b16r14-----------------|
G|--15-15-15-15----------------16-16-16-16-------------------14--------------|
D|-----------------16-16-16-16----------------------------------16-----------|
A|---------------------------------------------------------------------------|
E|---------------------------------------------------------------------------|

e|-------------------------------------------------------------------------------|
B|-----------------------15--14---15-14---------14~-17p15p14---14----------------|
G|----------------14-13~---14--14---------16-16--------------16--16-14-13--------|
D|-16-16\12-16-12----------------------16---------------------------------16~-14~|
A|-------------------------------------------------------------------------------|
E|-------------------------------------------------------------------------------|

e|-21-----------------------------------21--------------------------------------|
B|---19--21b22r21-17-17-19-17-21b22r21~---19---21b22r21-19-17-17-19-17-21b22r21~|
G|-----18-----------------------------------18----------------------------------|
D|------------------------------------------------------------------------------|
A|------------------------------------------------------------------------------|
E|------------------------------------------------------------------------------|
 -   get lots of feedback here  -
e|----17-------------19----------------------------------------------------------|
B|-19----18-21-22-19----22-19-21-21-22-22-21-21-19-19-15-15-14-14-12-12-10-10-9-9|
G|-------------------------------------------------------------------------------|
D|-------------------------------------------------------------------------------|
A|-------------------------------------------------------------------------------|
E|-------------------------------------------------------------------------------|
Guitar Solo Gtrs. 2 & 4 (Distorted)
e|---------------------------------------|
B|---------------------------------------|
G|---------------------------------------|
D|----4-4-4-4-4-4-4-4/9-9-9-9/12-12-12-12|
A|----4-4-4-4-4-4-4-4/9-9-9-9/12-12-12-12|
E|-14\4-4-4-4-4-4-4-4/9-9-9-9/12-12-12-12|

e|-----------------------------------------------------------|
B|-----------------------------------------------------------|
G|-----------------------------------------------------------|
D|-4-4-4-4-4-4-4-8-9-9-9-11-12-12-12-12----------------------|
A|-4-4-4-4-4-4-4-8-9-9-9-11-12-12-12-12----------------------|
E|-4-4-4-4-4-4-4-8-9-9-9-11-12-12-12-12----------------------|

e|-------------------------------------------------|
B|-------------------------------------------------|
G|-------------------------------------------------|
D|-4-4-4-4-4-4-4-4/9-9-9-9-9-9-9-9-----------------|
A|-4-4-4-4-4-4-4-4/9-9-9-9-9-9-9-9-----------------|
E|-4-4-4-4-4-4-4-4/9-9-9-9-9-9-9-9-----------------|

e|-----------------------------------------------------------------------|
B|-----------------------------------------------------------------------|
G|---------------------7-7-7-7-7-7---------------------------------------|
D|-0-0-0-0-0-0-0-0-7-7-7-7-7-7-7-7---------------------------------------|
A|-0-0-0-0-0-0-0-0-5-5-5-5-5-5-5-5---------------------------------------|
E|-0-0-0-0-0-0-0-0-------------------------------------------------------|
PM * * * * * * * * * *

Final Chorus Gtr. 2 & 4 (Distorted)
e|------------------------------------|
B|------------------------------------|
G|------------------------------------|
D|-4-4-4-4-4-4-4-4/9-9-9-9/12-12-12-12|
A|-4-4-4-4-4-4-4-4/9-9-9-9/12-12-12-12|
E|-4-4-4-4-4-4-4-4/9-9-9-9/12-12-12-12|

e|-----------------------------------------------------------|
B|-----------------------------------------------------------|
G|-----------------------------------------------------------|
D|-4-4-4-4-4-4-4-8-9-9-9-11-12-12-12-12----------------------|
A|-4-4-4-4-4-4-4-8-9-9-9-11-12-12-12-12----------------------|
E|-4-4-4-4-4-4-4-8-9-9-9-11-12-12-12-12----------------------|

e|-----------------------------------------------------------------|
B|-----------------------------------------------------------------|
G|---------------------------------6-6-6-6-6-6-6-6-6-6-6-6-6-6-6-6-|
D|-4-4-4-4-2-2-2-2-1-1-1-1-0-0-0-0-6-6-6-6-6-6-6-6-6-6-6-6-6-6-6-6-|
A|-4-4-4-4-2-2-2-2-1-1-1-1-0-0-0-0-4-4-4-4-4-4-4-4-4-4-4-4-4-4-4-4-|
E|-4-4-4-4-2-2-2-2-1-1-1-1-0-0-0-0---------------------------------|

Final Chorus Gtr. 1 (Distorted)
e|-------------------------------------14----14--------------------------|
B|-------------------------15----15-------15----15-----------------------|
G|-15----15----15----15-------15----15--------------play 2x--------------|
D|----14----14----14----14-----------------------------------------------|
A|-----------------------------------------------------------------------|
E|-----------------------------------------------------------------------|

e|----------------------14-14-14-14------------------------------------|
B|----------14-14-14-14-------------14-14-14-14-14---------------------|
G|-15-15-15------------------------------------------------------------|
D|---------------------------------------------------------------------|
A|---------------------------------------------------------------------|
E|---------------------------------------------------------------------|

e|---------------------------------------------------------------------------|
B|---------------------------------------------------------------------------|
G|-------6h7-9p7p6---6~--11p9p7------9p7p6-----------------------------------|
D|-6h7h9-----------9-----------11p9p7-----9p7p6------------------------------|
A|---------------------------------------------------------------------------|
E|---------------------------------------------------------------------------|




| /  slide up
| \  slide down
| h  hammer-on
| p  pull-off
| ~  vibrato
| +  harmonic
| x  Mute note
===============================================================================
Related for Dig Me Up tab