Guitaretab - guitar tabs
Song name
# A B C D E F G H I J K L M N O P Q R S T U V W X Y Z

Sullivan - Hey Im A Ghost tab

hey, Im a ghost
Sullivan
tabbed by LaVella Carlon
drop D

lyrics pretty match up if your put the lyrics to size 8 and the notes to size 11. so 
a super time. sullivan is an amazing band.fairwell <333333.

intro/verse (start first chord at 0:00)
e---0---------------------------------2---------------------|
B---2---------------------------------0---------------------|
G---2---------------------------------2---------------------|
D---0---------------------------------0---------------------|
A---0---------------------------------2---------------------|
D---0---------------------------------0---------------------|
watch from the woods the forests on fire how can we breathe if were too afraid to ask

e------0-------------------------------------------------|
B------0-----------------------------------3-------3-----|
G------4------------------------------------0-------0----|
D------5----------------------------------0-------0------|
A------5--------------------------------2-------2--------|
D------5----------------------------------------------5--|
shes so amazing she could make orphans tell who their fathers were

e---------0----0---------0-----0----0---0----------2----------|
B---------0----0---------0-----0----0---3----------2----------|
G---------7----6---------7-----9----11--4----------4----------|
D---------0----0---------0-----0----0---4----------4----------|
A---------5----4---------5-----7----9---2----------2----------|
D---------0----0---------0-----0----0-------------------------|
but does your tongue register the taste of every conviction Im not ashamed to have

e------------2------------------------9------------7-|
B------------2------------------------9------------7-|
G------------3------------------------9------------7-|
D------------4------------------------9------------7-|
A------------4------------------------9------------7-|
D------------2------------------------9------------7-|
and you know that I will end up alone and Im not ashamed of that

chorus
e---------0--0--0-------------------0-------0--0----------0--0--|
B---------0--0--0-------------------0-------0--0----------0--0--|
G---------0--2--4-------------------0-------2--4----------0--2--|
D---------2--4--5-------------------2-------4--5----------2--4--|
A---------2--4--5-------------------2-------4--5----------2--4--|
D---------2--4--5-------------------2-------4--5----------2--4--|
so bite your lip            so we both know hes on the phone       a trip overseas

e--------0-------------2---|
B--------0-------------3---|
G--------4-------------2---|
D--------5-------------0---|
A--------5-------------0---|
D--------5-------------0---|
until were on again off again soon

riff
e---0---0---0---0---0---0---0------------------------------|
B---0---0---0---0---0---0---0------------------------------|
G---14--12--11--12--11--14--11--7--6---7---6---7---6--7--6-|
D---0---0---0---0---0---0---0------------------------------|
A---12--10--9---10--9---12--9---5--4---5---4---5---4--7--6-|
D---0---0---0---0---0---0---0------------------------------|

e---2--0---0---0---0---0---0---0---------------------------|
B---3--0---0---0---0---0---0---0---------------------------|
G---2--14--12--11--12--11--14--11--7--6--7--6--7---6--7--6-|
D---0--0---0---0---0---0---0---0---------------------------|
A---0--12--10--9---10--9---12--9---5--4--5--4--5---4--7--6-|
D---0--0---0---0---0---0---0---0---------------------------|

verse 2
e---2---0-----------------------2-------------------------0---|
B---2---2-----------------------0-------------------------0---|
G---2---2-----------------------2-------------------------4---|
D---0---0-----------------------0-------------------------5---|
A---0---0-----------------------2-------------------------5---|
D---0---0-----------------------0-------------------------5---|
       so what happens when your self respect is rinsed out the rag that he soaked
[ Tab from: http://www.guitaretab.com/s/sullivan/74504.html ]
e-------------------------------------------0-----------------|
B-------------------------------------------2-----------------|
G-------------------------------------------2-----------------|
D-------------------------------------------0-----------------|
A-------------------------------------------0-----------------|
D-------------------------------------------0-----------------|
you in hes too physical its impossible to appease this boy freeze frame ghost of whats

e------2-----------------------0---------------------------|
B------0-----------------------0---------------------------|
G------2-----------------------4---------------------------|
D------0-----------------------5---------------------------|
A------2-----------------------5---------------------------|
D------0-----------------------5---------------------------|
left of a girl who wanted someone when she had it all she could walk through walls but

e------9--------------------7-----|
B------9--------------------7-----|
G------9--------------------7-----|
D------9--------------------7-----|
A------9--------------------7-----|
D------9--------------------7-----|
then again  speaks so well of her transperancies

chorus 2
e---------0--0--0-------------------0-------0--0----------0--0--|
B---------0--0--0-------------------0-------0--0----------0--0--|
G---------0--2--4-------------------0-------2--4----------0--2--|
D---------2--4--5-------------------2-------4--5----------2--4--|
A---------2--4--5-------------------2-------4--5----------2--4--|
D---------2--4--5-------------------2-------4--5----------2--4--|
so bite your lip            so we both know hes on the phone       a trip overseas

e---------------0---------------|
B---------------0---------------|
G---------------4---------------|
D---------------5---------------|
A---------------5---------------|
D---------------5---------------|
until were on again off again soon

riff 2
e---------0-----0-----0-----0-------0-----0-----0-----0--|
B---------3-----3-----3-----3-------3-----3-----3-----3--|
G-------4---4-----4-----4---4-------4-----4-----4-----4--|
D-----4-------4-----4-----4-------4---4-----4-----4---4--|
A---2---------------------------2-------2-----2-----2----|
D-----------------------------0--------------------------|

e---------0-----0-----0-----0-------0-----0-----0-------|
B---------3-----3-----3-----3-------3-----3-----3-------|
G-------4---4-----4-----4---4-------4-----4-----4-------|
D-----4-------4-----4-----4-------4---4-----4-----4-----|
A---2---------------------------2-------2-----2-----2---|
D-----------------------------0-------------------------|

bridge
e------------------------------------------|
B------------------------------------------|
G----------------4--4--------------4--4----|
D---4----4-------4--4---4---4------4--4----|
A---2----2-------2--2---2---2------2--2----|
D---0----0--------------0---0--------------|
        the ghost can see you now the ghost can see you now

end
e--0-0-------0--------0-----0-----0-----0--0--0--0--0-------0---|
B--0-0-------0--------0-----0-----0-----0--0--0--0--0-------0---|
G--4-6-------7--------9-----11----9-----11-12-14-4--6-------7---|
D--0-0-------0--------0-----0-----0-----0--0--0--0--0-------0---|
A--2-4-------5--------7-----9-----7-----9--10-12-2--4-------5---|
D--0-0-------0--------0-----0-----0-----0--0--0--0--0-------0---|
       yesterday I realize Im watching you die watching you die is the ink in his veins

e------0-----------0--0-----0--0--0--0-----0---------0-------0-|
B------0-----------0--0-----0--0--0--0-----0---------0-------0-|
G------9-----------11-9-----11-12-14-4-----6---------7-------9-|
D------0-----------0--0-----0--0--0--0-----0---------0-------0-|
A------7-----------9--7-----9--10-12-2-----4---------5-------7-|
D------0-----------0--0-----0--0--0--0-----0---------0-------0-|
   whats blackened your eye blackened your eye duct tape stories wont mend this this

e-------0----0--0--0--0---0------0---------0------0--------0---|
B-------0----0--0--0--0---0------0---------0------0--------0---|
G-------11---9--11-12-14--4------6---------7------9--------11--|
D-------0----0--0--0--0---0------0---------0------0--------0---|
A-------9----7--9--10-12--2------4---------5------7--------9---|
D-------0----0--0--0--0---0------0---------0------0--------0---|
     broken heart this broken heart duct tape stories wont mend this this broken heart

e---0--0--0--0---0--0--0--0----0---0---0---|
B---0--0--0--0---0--0--0--0----3---0---3---|
G---9--11-12-14--9--11-12-14---2---4---4---|
D---0--0--0--0---0--0--0--0----0---0---4---|
A---7--9--10-12--7--9--10-12---0---2---2---|
D---0--0--0--0---0--0--0--0----0---0---0---|
    this broken heart this broken heart
Related for Hey Im A Ghost tab