Song name
# A B C D E F G H I J K L M N O P Q R S T U V W X Y Z

Sullivan - Insurance For The Weak tab

			 Insurance for the Weak - Sullivan

Tabbed by:mr jb
Email:ctide57@hotmail.com

Tuning:standard


e|-----------------------------------------------------|
B|-----------------------------------------------------|
G|----Palm Mute this-----------------------------------|
D|-----7777--------------------------------------------|
A|-----7777--------------------------------------------|
E|-----5555-(play this chord 28 times)-----------------|

e|-----------------------------------|----------------------------|
B|-----------------------------------|----------------------------|
G|-----------------------------------|----------------------------|
D|----12/5---5-5-5--5-5---7-7--7-7---|--5-5--5--55--5-5--5--55----|
A|----12/5---5-5-5--5-5---7-7--7-7---|--5-5--5--55--5-5--5--55----|
E|----10/3---3-3-3--3-3---5-5--5-5---|--3-3--3--33--3-3--3--33----|

e|-------------------------------------|
B|-------------------------------------|
G|-------------------------------------|
D|---9-9--7-7-7-7----9-9--7-7-7-7---5--|
A|---9-9--7-7-7-7----9-9--7-7-7-7---5--|
E|---7-7--5-5-5-5----7-7--5-5-5-5---3--|


| / slide down
Tap to rate this tab
 
# A B C D E F G H I J K L M N O P Q R S T U V W X Y Z