Song name
# A B C D E F G H I J K L M N O P Q R S T U V W X Y Z

Sullivan - The Process tab

Artist: SULLIVAN
Album: Cover Your Eyes
Song: "The Process"

Drop D Tuning
Tabbed by Radnac

| /  slide down
| \  slide up
| h  hammer-on
| p  pull-off
| ~  let ring
| X  mute note
| .  palm mute
| ^  bend note

=================================================================

INTRO (0:01)

Guitar 1
G|-6~6~666-------------------------------|
D|-6~6~666~-7~77~777~-2~2~222~/6~66~6666~|
A|-4~4~444~-7~77~777~-2~2~222~/6~66~6666~|	x2
D|----------7~77~777~-2~2~222~/6~66~6666~|

Guitar 2
e|-4~--0-2-4-5-4-0~-5-4-2-0----------|
b|---2~--------------------0~-4-5-4~~|		x2

VERSE (0:15)

Guitar 1 (palm-muted)
G|-66666666----------------------------|
D|-66666666--9999999--7777777-22222222-|
A|-44444444--9999999--7777777-22222222-|	x2
D|-----------9999999--7777777-22222222-|
   ........  .......  ....... ........

PRE-CHORUS (0:29)

Guitar 1 (palm-muted)
G|-----------------|
D|6666666666666666-|
A|6666666666666666-|
D|6666666666666666-|
  ...........

CHORUS (0:33)

Guitar 1 & 2
G|-6~6~666-----------------------------|
D|-6~6~666~7~77~777~2~2~222~/6~66~6666~|
A|-4~4~444~7~77~777~2~2~222~/6~66~6666~|	x2
D|---------7~77~777~2~2~222~/6~66~6666~|

THEN (0:46)

D|/7777------------|
A|/7777-(just bass)|
D|/7777------------|

VERSE 2 (0:49)

Guitar 1 (palm-muted)
G|-/66666666----------------------------|
D|-/66666666--9999999--7777777-22222222-|
A|-/44444444--9999999--7777777-22222222-|	x2
D|------------9999999--7777777-22222222-|
    ........  .......  ....... ........

PRE-CHORUS (1:04)

Guitar 1 (palm-muted)
G|------------------------|
D|6-XX-6-XX-6-XX-6-XX-6-6-|
A|6-XX-6-XX-6-XX-6-XX-6-6-|
D|6-XX-6-XX-6-XX-6-XX-6-6-|
    ..   ..   ..   ..  

CHORUS 2 (1:07)

Guitar 1 & 2
G|-6~6~666-------------------------------|
D|-6~6~666~-7~77~777~-2~2~222~-6~66~6666~|
A|-4~4~444~-7~77~777~-2~2~222~-6~66~6666~|	x2
D|----------7~77~777~-2~2~222~-6~66~6666~|

THEN (1:20)

G|-------6--6--6--6-----------------------------|
D|/7777--6--6--6--6-----------------------------|
A|/7777--4--4--4--4-----------------------------|	x2
D|/7777------------7~77~777~-2~2~222~/6~66~6666~|

THEN (1:36)

D|/66666-/777777777777-\6666--11--11--11-11~|
A|/66666-/777777777777-\6666--11--11--11-11~|
D|/66666-/777777777777-\6666--11--11--11-11~|

BRIDGE

Guitar 1
G|-6~6~666-------------------------------|
D|-6~6~666~-7~77~777~-2~2~222~/6~66~6666~|
A|-4~4~444~-7~77~777~-2~2~222~/6~66~6666~|	x2
D|----------7~77~777~-2~2~222~/6~66~6666~|

Guitar 2
e|---16-------------------------------------------|
b|-14--14-17-16~\-9-10-9-12-9~-9h10h9-12h9-\5/7~0~|	x2

Then (1:58)

Guitar 1 & 2
D|-11--11--11--11--11--11--11-11-11---7--7--7--7--7--7--7-7-7---
A|-11--11--11--11--11--11--11-11-11---7--7--7--7--7--7--7-7-7---
D|-11--11--11--11--11--11--11-11-11---7--7--7--7--7--7--7-7-7---

D|9--9--9--9--9--9--9-9-9---6--6--6--6--6--6--6-6-6-|
A|9--9--9--9--9--9--9-9-9---6--6--6--6--6--6--6-6-6-|
D|9--9--9--9--9--9--9-9-9---6--6--6--6--6--6--6-6-6-|

PRE-CHORUS (2:12

Guitar 1 (faint, with hazy effect)
G|-66666666----------------------------|
D|-66666666--9999999--7777777-22222222-|
A|-44444444--9999999--7777777-22222222-|	x2
D|-----------9999999--7777777-22222222-|

Then (2:27)

D|/666666666666-6~~~
A|/666666666666-6~~~
D|/666666666666-6~~~
   ............

FINAL CHORUS (2:32)

Guitar 1 & 2
G|-6~6~666-------------------------------|
D|-6~6~666~-7~77~777~-2~2~222~-6~66~6666~|
A|-4~4~444~-7~77~777~-2~2~222~-6~66~6666~|	x2
D|----------7~77~777~-2~2~222~-6~66~6666~|

(2:45)

Guitar 1
G|------66666666---------------------------|
D|/7777-66666666-77777777-22222222/66666666|
A|/7777-44444444-77777777-22222222/66666666|	x2
D|/7777----------77777777-22222222/66666666|

Guitar 2
e|-------4~--0-2-4-5-4-0~-5-4-2-0----------|
b|---------2~--------------------0~-4-5-4~~|	x2

(3:00)

D|/66666-/777777777777-\6666--11--11--11-11~~~~~~~~~~~~~
A|/66666-/777777777777-\6666--11--11--11-11~~~(fade out)
D|/66666-/777777777777-\6666--11--11--11-11~~~~~~~~~~~~~

=================================================================

Notes: This is everything that I was able to pick up. 
Some other distorted sounds are heard (during the solo for example),
but these are so distorted that I can't figure out every note. 
Other sounds you may hear could actually be synth, 
like that which is heard during the chorus, for example. 
So this is the most accurate tab you're going to get 
before someone starts going crazy trying to pick up every single note
and decide whether it's guitar or synth.
Be my guest if you're up for that, 
but for now, enjoy that which is Sullivan...

Please rate or comment.
Tap to rate this tab
# A B C D E F G H I J K L M N O P Q R S T U V W X Y Z