Song name
# A B C D E F G H I J K L M N O P Q R S T U V W X Y Z

Sum 41 - Pieces Live tab

Sum 41
Pieces [Live @ Musique Plus]
Usually they dont play the song w/ guitar but with piano but on some rare occasions it's 
the guitar verison. this is exactly how they play it so you can play it perfectly.

Guitar 1-Dercyk (D A D G B E) [Album Version]
                (Db Ab Db Gb Bb Eb) [Live]

Guitar 2-Tom    (E A D G B E) [Album Version] [Dave was the actual guitarist
                                               who recorded the song]
                (Eb Ab Db Gb Bb Eb) [Live]

GUITAR 1
Intro
E|--1--1----1--1-1---1----------------------------------------------|
B|--3--3----3--3-3---3----------------------------------------------|
G|--2--2----2--2-2---2----------------------------------------------|
D|--0--0-0--0--0-0-0-0--8--8--8-8-8-8-3--3--3-3-3-3--2--2--2-2-2-2--|
A|-------0---------0----8--8--8-8-8-8-3--3--3-3-3-3--3--3--3-3-3-3--|
D|-------0---------0----8--8--8-8-8-8-3--3--3-3-3-3--2--2--2-2-2-2--|

Verse:
E|--1--1----1--1-1---1-----------------------------------------|
B|o-3--3----3--3-3---3----------------------------------------o|
G|--2--2----2--2-2---2-----------------------------------------|
D|--0--0-0--0--0-0-0-0--8-8-8-8-8-8--3-3-3-3-3-3--2-2-2-2-2-2--|
A|o------0---------0----8-8-8-8-8-8--3-3-3-3-3-3--3-3-3-3-3-3-o|
D|-------0---------0----8-8-8-8-8-8--3-3-3-3-3-3--2-2-2-2-2-2--|


Chorus
Guitar 1
E|----------------------------------------------------------|
B|o--------------------------------------------------------o|
G|-3--3-3-3-3-3-3-3-3-3-3-3-----------------5--5-5-5-5-5-5--|
D|-3--3-3-3-3-3-3-3-3-3-3-3-3--3-3-3-3-3-3--5--5-5-5-5-5-5--|
A|o1--1-1-1-1-1-1-1-1-1-1-1-3--3-3-3-3-3-3--3--3-3-3-3-3-3-o|
D|--------------------------3--3-3-3-3-3-3------------------|
Guitar 2
E|----5-----5------5-----5------5-------5-------3------3----|
B|o-6--6--6--6---6--6--6--6---6---6---6---6---5--5---5---5-o|
G|-7-7--7--7---7--7--7--7---5--5----5---5---5--5---5--5-----|
D|----------------------------------------------------------|
A|o--------------------------------------------------------o|
E|----------------------------------------------------------|

On the Second Time play this At the end
                           Guitar 1     E|-------|
                                        B|-------|
                                        G|--3~~--|
                                        D|--3~~--|
                                        A|--1~~--|
                                        D|-------|
                            Guitar 2 
                                        E|--6~~--|
                                        B|--6~~--|
                                        G|--5~~--|
                                        D|-------|
                                        A|-------|
                                        D|-------|

Interlude
Guitar 1
E|--1--1----1--1-1---1-----------------------------------------------|
B|--3--3----3--3-3---3-----------------------------------------------|
G|--2--2----2--2-2---2-----------------------------------------------|
D|--0--0-0--0--0-0-0-0--8--8--8-8-8-8--3--3--3-3-3-3--2--2--2-2-2-2--|
A|-------0---------0----8--8--8-8-8-8--3--3--3-3-3-3--3--3--3-3-3-3--|
D|-------0---------0----8--8--8-8-8-8--3--3--3-3-3-3--2--2--2-2-2-2--|
Guitar 2
E|--5-5--5--5-5-5-5--5--5-5-5-5-5-5-5--6-6-6-6-6-6-6--3-3-3-3-3-3-3--|
B|--6-6--6--6-6-6-6--6--6-6-6-6-6-6-6--6-6-6-6-6-6-6--5-5-5-5-5-5-5--|
G|--5-5--5--5-5-5-5--5--5-5-5-5-5-5-5--5-5-5-5-5-5-5--5-5-5-5-5-5-5--|
D|-------------------------------------------------------------------|
A|-------------------------------------------------------------------|
E|-------------------------------------------------------------------|

Verse II
Guitar 1
E|--1--1----1--1-1---1-----------------------------------------|
B|o-3--3----3--3-3---3----------------------------------------o|
G|--2--2----2--2-2---2-----------------------------------------|
D|--0--0-0--0--0-0-0-0--8-8-8-8-8-8--3-3-3-3-3-3--2-2-2-2-2-2--|
A|o------0---------0----8-8-8-8-8-8--3-3-3-3-3-3--3-3-3-3-3-3-o|
D|-------0---------0----8-8-8-8-8-8--3-3-3-3-3-3--2-2-2-2-2-2--|
Guitar 2
E|--5-5--5--5-5-5-5--5--6-6-6-6-6-6--5-5-5-5-5-5--3-3-3-3-3-3--|
B|o-6-6--6--6-6-6-6--6--6-6-6-6-6-6--6-6-6-6-6-6--5-5-5-5-5-5-o|
G|--5-5--5--5-5-5-5--5--5-5-5-5-5-5--5-5-5-5-5-5--5-5-5-5-5-5--|
D|-------------------------------------------------------------|
A|o-----------------------------------------------------------o|
E|-------------------------------------------------------------|

Chorus II
Guitar 1
E|--------------------------------------------------------|
B|o------------------------------------------------------o|
G|-3-3-3-3-3-3-3-3-3-3-3-3-----------------5-5-5-5-5-5-5--|
D|-3-3-3-3-3-3-3-3-3-3-3-3--3-3-3-3-3-3-3--5-5-5-5-5-5-5--|
A|o1-1-1-1-1-1-1-1-1-1-1-1--3-3-3-3-3-3-3--3-3-3-3-3-3-3-o|
D|--------------------------3-3-3-3-3-3-3-----------------|
Guitar 2
E|-6-6-6-6-6-6-6-6-6-6-6-6--5-5-5-5-5-5-5--8-8-8-8-8-8-8--|
B|o6-6-6-6-6-6-6-6-6-6-6-6--6-6-6-6-6-6-6--6-6-6-6-6-6-6-o|
G|-5-5-5-5-5-5-5-5-5-5-5-5--5-5-5-5-5-5-5--5-5-5-5-5-5-5--|
D|--------------------------------------------------------|
A|o------------------------------------------------------o|
E|--------------------------------------------------------|

On the Second Time play this At the end
                           Guitar 1     E|-------|
                                        B|-------|
                                        G|--3~~--|
                                        D|--3~~--|
                                        A|--1~~--|
                                        D|-------|
                            Guitar 2 
                                        E|--6~~--|
                                        B|--6~~--|
                                        G|--5~~--|
                                        D|-------|
                                        A|-------|

Bridge
Guitar 1
E|-------------------------------------------------|
B|o----------------------------------------------o-|
G|-------------------------3--3--3--3--3--3--3--3--|
D|--3--3--3--3--3--3--3--3-3--3--3--3--3--3--3--3--|
A|o-3--3--3--3--3--3--3--3-1--1--1--1--1--1--1--1o-|
E|--3--3--3--3--3--3--3--3-------------------------|
Guitar 2
e|-------------------------------------------------|
b|o10-10-10-11-10-10-10-11-10-10-10-11-13-13-13-13o|
g|-10-10-10-10-10-10-10-10-10-10-10-10-10-10-10-10-|
d|-10-10-10-10-10-10-10-10-10-10-10-10-10-10-10-10-|
a|o-----------------------------------------------o|
e|-------------------------------------------------|

Guitar 1
E|----------------------------------------------|
B|o--------------------------------------------o|
G|-7--7--7--7--5-5-5-5--3--3--3--3--------------|
D|-7--7--7--7--5-5-5-5--3--3--3--3--3--3--3--3--|
A|o5--5--5--5--3-3-3-3--1--1--1--1--3--3--3--3-o|
D|----------------------------------3--3--3--3--|
Guitar 2
E|-------8---------8----------------------------|
B|o10----------8--------------10----------10---o|
G|----10---10----9---9--10-------------10----10-|
D|-------------------------12----12-10----------|
A|o--------------------------------------------o|
E|----------------------------------------------|

Guitar 1
E|----------------------------|
B|----------------------------|
G|--2-2-2--2-2-2-2-2--2-2-2-2-|
D|--2-2-2--2-2-2-2-2--2-2-2-2-|
A|--0-0-0--0-0-0-0-0--0-0-0-0-|
D|----------------------------|
Guitar 2
E|--0-0-0--0-0-0-0--0-0-0-0---|
G|--8-8-8-10-8-8-8-10-8-8-8-8-|
B|----------------------------|
D|----------------------------|
A|----------------------------|
E|----------------------------|

Verse III
Guitar 1
E|--1--1----1--1-1---1-----------------------------------------|
B|o-3--3----3--3-3---3----------------------------------------o|
G|--2--2----2--2-2---2-----------------------------------------|
D|--0--0-0--0--0-0-0-0--8-8-8-8-8-8--3-3-3-3-3-3--2-2-2-2-2-2--|
A|o------0---------0----8-8-8-8-8-8--3-3-3-3-3-3--3-3-3-3-3-3-o|
D|-------0---------0----8-8-8-8-8-8--3-3-3-3-3-3--2-2-2-2-2-2--|
Guitar 2
E|--5-5--5--5-5-5-5--5--6-6-6-6-6-6--5-5-5-5-5-5--3-3-3-3-3-3--|
B|o-6-6--6--6-6-6-6--6--6-6-6-6-6-6--6-6-6-6-6-6--5-5-5-5-5-5-o|
G|--5-5--5--5-5-5-5--5--5-5-5-5-5-5--5-5-5-5-5-5--5-5-5-5-5-5--|
D|-------------------------------------------------------------|
A|o-----------------------------------------------------------o|
E|-------------------------------------------------------------|

Chorus II
Guitar 1
E|--------------------------------------------------------|
B|o------------------------------------------------------o|
G|-3-3-3-3-3-3-3-3-3-3-3-3-----------------5-5-5-5-5-5-5--|
D|-3-3-3-3-3-3-3-3-3-3-3-3--3-3-3-3-3-3-3--5-5-5-5-5-5-5--|
A|o1-1-1-1-1-1-1-1-1-1-1-1--3-3-3-3-3-3-3--3-3-3-3-3-3-3-o|
D|--------------------------3-3-3-3-3-3-3-----------------|
Guitar 2
E|-6-6-6-6-6-6-6-6-6-6-6-6--5-5-5-5-5-5-5--8-8-8-8-8-8-8--|
B|o6-6-6-6-6-6-6-6-6-6-6-6--6-6-6-6-6-6-6--6-6-6-6-6-6-6-o|
G|-5-5-5-5-5-5-5-5-5-5-5-5--5-5-5-5-5-5-5--5-5-5-5-5-5-5--|
D|--------------------------------------------------------|
A|o------------------------------------------------------o|
E|--------------------------------------------------------|

On the Second Time play this At the end
                           Guitar 1     E|-------|
                                        B|-------|
                                        G|--3~~--|
                                        D|--3~~--|
                                        A|--1~~--|
                                        D|-------|
                            Guitar 2 
                                        E|--6~~--|
                                        B|--6~~--|
                                        G|--5~~--|
                                        D|-------|
                                        A|-------|
End                                     E|-------|
Guitar 1
E|------|
B|------|
G|------|
D|-3~~--|
A|-3~~--|
D|-3~~--|

Notes:
Deryck is play this squier/fender custom telecaster and Tom is play his Goldtop Les Paul.
Both of their tones are twangy. Deryck's is clean...but has distortion on at the same time.
Tom's tone isn't very bright..but kind of mellow and wht i would discribe as "lifeless"
sounds like a stratocaster on the bridge/middle pickup with tone on 0 if you ask me.
Tap to rate this tab
# A B C D E F G H I J K L M N O P Q R S T U V W X Y Z