Guitaretab - guitar tabs
Song name
# A B C D E F G H I J K L M N O P Q R S T U V W X Y Z

Sum 41 - Over My Head Better Off Dead tab

                       Over My Head Better Off Dead - Sum 41                         


Standard tuning
Tempo=180 bpm


Guitar 1                                                                          
Dave Brownsound



     PM       PM    PM    PM    PM       PM              
     E  E  E  E  E  E  E  E     E  E  E  E  E  E  E  E   
E||--------------------------|--------------------------|
B||--------------------------|--------------------------|
G||--------------------------|--------------------------|
D||--------5-----9-----9-----|--------7-----------4-----|
A||--7--7-----7-----7-----7--|--9--9-----9--5--5-----5--|
E||--------------------------|--------------------------|


  PM       PM    PM    PM    PM       PM              
  E  E  E  E  E  E  E  E     E  E  E  E  E  E  E  E   
--------------------------|--------------------------|
--------------------------|--------------------------|
--------------------------|--------------------------|
--------5-----9-----9-----|--------7-----------4-----|
--7--7-----7-----7-----7--|--9--9-----9--5--5-----5--|
--------------------------|--------------------------|


  E  E  E  E   E   E   E   E      E   E   E   E  E  E  E  E   
------------------------------|------------------------------|
------------------------------|------------------------------|
--9--9--9--9--12--12--12--12--|--11--11--11--11--7--7--7--7--|
--9--9--9--9--12--12--12--12--|--11--11--11--11--7--7--7--7--|
--7--7--7--7--10--10--10--10--|---9---9---9---9--5--5--5--5--|
------------------------------|------------------------------|


  E  E  E  E   E   E   E   E      E   E   E   E  E  E  E  E   
------------------------------|------------------------------|
------------------------------|------------------------------|
--9--9--9--9--12--12--12--12--|--11--11--11--11--7--7--7--7--|
--9--9--9--9--12--12--12--12--|--11--11--11--11--7--7--7--7--|
--7--7--7--7--10--10--10--10--|---9---9---9---9--5--5--5--5--|
------------------------------|------------------------------|


  E  E  E  E   E   E   E   E      E   E   E   E  E  E  E  E   
------------------------------|------------------------------|
------------------------------|------------------------------|
--9--9--9--9--12--12--12--12--|--11--11--11--11--7--7--7--7--|
--9--9--9--9--12--12--12--12--|--11--11--11--11--7--7--7--7--|
--7--7--7--7--10--10--10--10--|---9---9---9---9--5--5--5--5--|
------------------------------|------------------------------|


  E  E  E  E   E   E   E   E      E   E   E   E  E  E  E  E   
------------------------------|------------------------------|
------------------------------|------------------------------|
--9--9--9--9--12--12--12--12--|--11--11--11--11--7--7--7--7--|
--9--9--9--9--12--12--12--12--|--11--11--11--11--7--7--7--7--|
--7--7--7--7--10--10--10--10--|---9---9---9---9--5--5--5--5--|
------------------------------|------------------------------|


  PM       PM    PM    PM    PM       PM              
  E  E  E  E  E  E  E  E     E  E  E  E  E  E  E  E   
--------------------------|--------------------------|
--------------------------|--------------------------|
--------------------------|--------------------------|
--------5-----9-----9-----|--------7-----------4-----|
--7--7-----7-----7-----7--|--9--9-----9--5--5-----5--|
--------------------------|--------------------------|


  PM       PM    PM    PM    PM       PM              
  E  E  E  E  E  E  E  E     E  E  E  E  E  E  E  E   
--------------------------|--------------------------|
--------------------------|--------------------------|
--------------------------|--------------------------|
--------5-----9-----9-----|--------7-----------4-----|
--7--7-----7-----7-----7--|--9--9-----9--5--5-----5--|
--------------------------|--------------------------|


  PM       PM    PM    PM    PM       PM              
  E  E  E  E  E  E  E  E     E  E  E  E  E  E  E  E   
--------------------------|--------------------------|
--------------------------|--------------------------|
--------------------------|--------------------------|
--------5-----9-----9-----|--------7-----------4-----|
--7--7-----7-----7-----7--|--9--9-----9--5--5-----5--|
--------------------------|--------------------------|


  PM       PM    PM    PM    PM       PM              
  E  E  E  E  E  E  E  E     E  E  E  E  E  E  E  E   
--------------------------|--------------------------|
--------------------------|--------------------------|
--------------------------|--------------------------|
--------5-----9-----9-----|--------7-----------4-----|
--7--7-----7-----7-----7--|--9--9-----9--5--5-----5--|
--------------------------|--------------------------|


  E  E  E  E  E  E  E  E     E  E  E  E  E  E  E  E   
--------------------------|--------------------------|
--------------------------|--------------------------|
--------------------------|--------------------------|
--------2--------2-----2--|--------4--------4-----4--|
--3--3-----3--3-----3-----|--5--5-----5--5-----5-----|
--------------------------|--------------------------|


  E  E  E  E  E  E  E  E     E  E  E  E  E  E  E  E   
--------------------------|--------------------------|
--------------------------|--------------------------|
--------------------------|--------------------------|
--------5-----9-----9-----|--------5-----9-----9-----|
--7--7-----7-----7-----7--|--7--7-----7-----7-----7--|
--------------------------|--------------------------|


  E  E  E  E  E  E  E  E     E  E  E  E  E  E  E  E   
--------------------------|--------------------------|
--------------------------|--------------------------|
--------------------------|--------------------------|
--------2--------2-----2--|--------4--------4-----4--|
--3--3-----3--3-----3-----|--5--5-----5--5-----5-----|
--------------------------|--------------------------|


  E  E  E  E  E  E  E  E     E  E  E  E  E  E  E  E   
--------------------------|--------------------------|
--------------------------|--------------------------|
--------------------------|--------------------------|
--------------------------|--------------------------|
--2--2--2--2--2--2--2--2--|--2--2--2--2--------------|
--0--0--0--0--0--0--0--0--|--0--0--0--0--------------|


  E  E  E  E  E  E  E  E     E  E  E  E  E  E  E  E   
--------------------------|--------------------------|
--------------------------|--------------------------|
--------------------------|--5--5--5--5--5--5--5--5--|
--2--2--2--2--2--2--2--2--|--5--5--5--5--5--5--5--5--|
--2--2--2--2--2--2--2--2--|--3--3--3--3--3--3--3--3--|
--0--0--0--0--0--0--0--0--|--------------------------|


  E  E  E  E  E  E  E  E     E  E  E  E  E  E  E  E   
--------------------------|--------------------------|
--------------------------|--------------------------|
--------------------------|--7--7--7--7--7--7--7--7--|
--5--5--5--5--5--5--5--5--|--7--7--7--7--7--7--7--7--|
--5--5--5--5--5--5--5--5--|--5--5--5--5--5--5--5--5--|
--3--3--3--3--3--3--3--3--|--------------------------|


  E  E  E  E  E  E  E  E     E  E  E  E  E  E  E  E   
--------------------------|--------------------------|
--------------------------|--------------------------|
--------------------------|--5--5--5--5--5--5--5--5--|
--2--2--2--2--2--2--2--2--|--5--5--5--5--5--5--5--5--|
--2--2--2--2--2--2--2--2--|--3--3--3--3--3--3--3--3--|
--0--0--0--0--0--0--0--0--|--------------------------|


  E  E  E  E  E  E  E  E     E  E  E  E  E  E  E  E   
--------------------------|--------------------------|
--------------------------|--------------------------|
--------------------------|--7--7--7--7--7--7--7--7--|
--5--5--5--5--5--5--5--5--|--7--7--7--7--7--7--7--7--|
--5--5--5--5--5--5--5--5--|--5--5--5--5--5--5--5--5--|
--3--3--3--3--3--3--3--3--|--------------------------|


   Q     E   E   Q    E   E      Q    E   E   E   E   E   E   
-----------------------------|-------------------------------|
-----------------------------|-------------------------------|
--12-----x--14--14----x--12--|--12----x--11--11--11--11--11--|
---------x------------x------|--------x----------------------|
--10-----x--12--12----x--10--|--10----x---9---9---9---9---9--|
---------x------------x------|--------x----------------------|


   Q     E   E   Q    E   E      Q    E   E   E   E   E   E   
-----------------------------|-------------------------------|
-----------------------------|-------------------------------|
--12-----x--14--14----x--12--|--12----x--11--11--11--11--11--|
---------x------------x------|--------x----------------------|
--10-----x--12--12----x--10--|--10----x---9---9---9---9---9--|
---------x------------x------|--------x----------------------|


  PM       PM    PM    PM    PM       PM              
  E  E  E  E  E  E  E  E     E  E  E  E  E  E  E  E   
--------------------------|--------------------------|
--------------------------|--------------------------|
--------------------------|--------------------------|
--------5-----9-----9-----|--------7-----------4-----|
--7--7-----7-----7-----7--|--9--9-----9--5--5-----5--|
--------------------------|--------------------------|


  PM       PM    PM    PM    PM       PM              
  E  E  E  E  E  E  E  E     E  E  E  E  E  E  E  E   
--------------------------|--------------------------|
--------------------------|--------------------------|
--------------------------|--------------------------|
--------5-----9-----9-----|--------7-----------4-----|
--7--7-----7-----7-----7--|--9--9-----9--5--5-----5--|
--------------------------|--------------------------|


  PM       PM    PM    PM    PM       PM              
  E  E  E  E  E  E  E  E     E  E  E  E  E  E  E  E   
--------------------------|--------------------------|
--------------------------|--------------------------|
--------------------------|--------------------------|
--------5-----9-----9-----|--------7-----------4-----|
--7--7-----7-----7-----7--|--9--9-----9--5--5-----5--|
--------------------------|--------------------------|


  PM       PM    PM    PM    PM       PM              
  E  E  E  E  E  E  E  E     E  E  E  E  E  E  E  E   
--------------------------|--------------------------|
--------------------------|--------------------------|
--------------------------|--------------------------|
--------5-----9-----9-----|--------7-----------4-----|
--7--7-----7-----7-----7--|--9--9-----9--5--5-----5--|
--------------------------|--------------------------|


  E  E  E  E  E  E  E  E     E  E  E  E  E  E  E  E   
--------------------------|--------------------------|
--------------------------|--------------------------|
--------------------------|--------------------------|
--------2--------2-----2--|--------4--------4-----4--|
--3--3-----3--3-----3-----|--5--5-----5--5-----5-----|
--------------------------|--------------------------|


  E  E  E  E  E  E  E  E     E  E  E  E  E  E  E  E   
--------------------------|--------------------------|
--------------------------|--------------------------|
--------------------------|--------------------------|
--------5-----9-----9-----|--------5-----9-----9-----|
--7--7-----7-----7-----7--|--7--7-----7-----7-----7--|
--------------------------|--------------------------|


  E  E  E  E  E  E  E  E     E  E  E  E  E  E  E  E   
--------------------------|--------------------------|
--------------------------|--------------------------|
--------------------------|--------------------------|
--------2--------2-----2--|--------4--------4-----4--|
--3--3-----3--3-----3-----|--5--5-----5--5-----5-----|
--------------------------|--------------------------|


  E  E  E  E  E  E  E  E     E  E  E  E  E  E  E  E   
--------------------------|--------------------------|
--------------------------|--------------------------|
--------------------------|--------------------------|
--------------------------|--------------------------|
--2--2--2--2--2--2--2--2--|--2--2--2--2--------------|
--0--0--0--0--0--0--0--0--|--0--0--0--0--------------|


  E  E  E  E  E  E  E  E     E  E  E  E  E  E  E  E   
--------------------------|--------------------------|
--------------------------|--------------------------|
--------------------------|--5--5--5--5--5--5--5--5--|
--2--2--2--2--2--2--2--2--|--5--5--5--5--5--5--5--5--|
--2--2--2--2--2--2--2--2--|--3--3--3--3--3--3--3--3--|
--0--0--0--0--0--0--0--0--|--------------------------|


  E  E  E  E  E  E  E  E     E  E  E  E  E  E  E  E   
--------------------------|--------------------------|
--------------------------|--------------------------|
--------------------------|--7--7--7--7--7--7--7--7--|
--5--5--5--5--5--5--5--5--|--7--7--7--7--7--7--7--7--|
--5--5--5--5--5--5--5--5--|--5--5--5--5--5--5--5--5--|
--3--3--3--3--3--3--3--3--|--------------------------|


  E  E  E  E  E  E  E  E     E  E  E  E  E  E  E  E   
--------------------------|--------------------------|
--------------------------|--------------------------|
--------------------------|--5--5--5--5--5--5--5--5--|
--2--2--2--2--2--2--2--2--|--5--5--5--5--5--5--5--5--|
--2--2--2--2--2--2--2--2--|--3--3--3--3--3--3--3--3--|
--0--0--0--0--0--0--0--0--|--------------------------|


  E  E  E  E  E  E  E  E     E  E  E  E  E  E  E  E     Q    Q    Q    Q     
--------------------------|--------------------------|----------------------|
--------------------------|--------------------------|----------------------|
--------------------------|--7--7--7--7--7--7--7--7--|----------------------|
--5--5--5--5--5--5--5--5--|--7--7--7--7--7--7--7--7--|--2----2----2----2----|
--5--5--5--5--5--5--5--5--|--5--5--5--5--5--5--5--5--|--2----2----2----2----|
--3--3--3--3--3--3--3--3--|--------------------------|--0----0----0----0----|


  E  E  E  E  E  E  E  E     Q    Q    Q    Q       E  E  E  E  E  E  E  E   
--------------------------|----------------------|--------------------------|
--------------------------|----------------------|--------------------------|
--5--5--5--5--5--5--5--5--|----------------------|--------------------------|
--5--5--5--5--5--5--5--5--|--5----5----5----5----|--4--4--4--4--4--4--4--4--|
--3--3--3--3--3--3--3--3--|--5----5----5----5----|--4--4--4--4--4--4--4--4--|
--------------------------|--3----3----3----3----|--2--2--2--2--2--2--2--2--|


  Q    Q    Q    Q       E  E  E  E  E  E  E  E     Q    Q    Q    Q     
----------------------|--------------------------|----------------------|
----------------------|--------------------------|----------------------|
----------------------|--5--5--5--5--5--5--5--5--|----------------------|
--2----2----2----2----|--5--5--5--5--5--5--5--5--|--5----5----5----5----|
--2----2----2----2----|--3--3--3--3--3--3--3--3--|--5----5----5----5----|
--0----0----0----0----|--------------------------|--3----3----3----3----|


  E  E  E  E  E  E  E  E     Q    Q    Q    Q       E  E  E  E  E  E  E  E   
--------------------------|----------------------|--------------------------|
--------------------------|----------------------|--------------------------|
--------------------------|----------------------|--5--5--5--5--5--5--5--5--|
--4--4--4--4--4--4--4--4--|--2----2----2----2----|--5--5--5--5--5--5--5--5--|
--4--4--4--4--4--4--4--4--|--2----2----2----2----|--3--3--3--3--3--3--3--3--|
--2--2--2--2--2--2--2--2--|--0----0----0----0----|--------------------------|


  Q    Q    Q    Q       E  E  E  E  E  E  E  E     Q    Q    Q    Q     
----------------------|--------------------------|----------------------|
----------------------|--------------------------|----------------------|
----------------------|--------------------------|----------------------|
--5----5----5----5----|--4--4--4--4--4--4--4--4--|--2----2----2----2----|
--5----5----5----5----|--4--4--4--4--4--4--4--4--|--2----2----2----2----|
--3----3----3----3----|--2--2--2--2--2--2--2--2--|--0----0----0----0----|


  E  E  E  E  E  E  E  E     E  E  Q    Q    E  E     Q    Q    E  E  E  E   
--------------------------|------------------------|------------------------|
--------------------------|------------------------|------------------------|
--5--5--5--5--5--5--5--5--|------------------------|------------------------|
--5--5--5--5--5--5--5--5--|--x--x--5----5----x--x--|--5----5----5--5--5--5--|
--3--3--3--3--3--3--3--3--|--x--x--5----5----x--x--|--5----5----3--3--5--5--|
--------------------------|--x--x--3----3----x--x--|--3----3----3--3--3--3--|


   E   E   E   E   E   E   E   E      E   E   E   E   E   E   E   E   
----------------------------------|----------------------------------|
----------------------------------|----------------------------------|
--12--12--12--12--11--11--11--11--|--14--14--14--14--12--12--12--12--|
----------------------------------|----------------------------------|
--10--10--10--10---9---9---9---9--|--12--12--12--12--10--10--10--10--|
----------------------------------|----------------------------------|


   E   E   E   E   E   E   E   E      E   E   E   E   E   E   E   E   
----------------------------------|----------------------------------|
----------------------------------|----------------------------------|
--16--16--16--16--12--12--12--12--|--11--11--12--12--14--14--16--16--|
----------------------------------|----------------------------------|
--14--14--14--14--10--10--10--10--|---9---9--10--10--12--12--14--14--|
----------------------------------|----------------------------------|


   E   E   E   E   E   E   E   E      E   E   E   E   E   E   E   E   
----------------------------------|----------------------------------|
----------------------------------|----------------------------------|
--12--12--12--12--11--11--11--11--|--14--14--14--14--12--12--12--12--|
----------------------------------|----------------------------------|
--10--10--10--10---9---9---9---9--|--12--12--12--12--10--10--10--10--|
----------------------------------|----------------------------------|


   E   E   E   E   E   E   E   E      E   E   E   E   E   E   E   E   
----------------------------------|----------------------------------|
----------------------------------|----------------------------------|
--16--16--16--16--12--12--12--12--|--11--11--12--12--14--14--16--16--|
----------------------------------|----------------------------------|
--14--14--14--14--10--10--10--10--|---9---9--10--10--12--12--14--14--|
----------------------------------|----------------------------------|


   E   E   E   E   E   E   E   E      E   E   E   E   E   E   E   E   
----------------------------------|----------------------------------|
----------------------------------|----------------------------------|
--12--12--12--12--11--11--11--11--|--14--14--14--14--12--12--12--12--|
----------------------------------|----------------------------------|
--10--10--10--10---9---9---9---9--|--12--12--12--12--10--10--10--10--|
----------------------------------|----------------------------------|


   E   E   E   E   E   E   E   E      E   E   E   E   E   E   E   E   
----------------------------------|----------------------------------|
----------------------------------|----------------------------------|
--16--16--16--16--12--12--12--12--|--11--11--12--12--14--14--16--16--|
----------------------------------|----------------------------------|
--14--14--14--14--10--10--10--10--|---9---9--10--10--12--12--14--14--|
----------------------------------|----------------------------------|


   E   E   E   E   E   E   E   E      E   E   E   E   E   E   E   E   
----------------------------------|----------------------------------|
----------------------------------|----------------------------------|
--12--12--12--12--11--11--11--11--|--14--14--14--14--12--12--12--12--|
----------------------------------|----------------------------------|
--10--10--10--10---9---9---9---9--|--12--12--12--12--10--10--10--10--|
----------------------------------|----------------------------------|


   E   E   E   E   E   E   E   E      E   E   E   E   E   E   E  E   
----------------------------------|---------------------------------|
----------------------------------|---------------------------------|
--16--16--16--16--12--12--12--12--|--11--11--12--12--14--14--16-----|
----------------------------------|---------------------------------|
--14--14--14--14--10--10--10--10--|---9---9--10--10--12--12--14-----|
----------------------------------|---------------------------------|


   W                   E  E  Q    E  E  Q       E  E  Q    E  E  Q     
--------------------|------------------------|------------------------|
--------------------|------------------------|------------------------|
---L----------------|------------------------|--5--5--5----5--5--5----|
---L----------------|--2--2--2----2--2--2----|--5--5--5----5--5--5----|
---L----------------|--2--2--2----2--2--2----|--3--3--3----3--3--3----|
--------------------|--0--0--0----0--0--0----|------------------------|


  E  E  Q    E  E  Q       E  E  Q    E  E  Q       E  E  Q    E  E  Q     
------------------------|------------------------|------------------------|
------------------------|------------------------|------------------------|
------------------------|--7--7--7----7--7--7----|------------------------|
--5--5--5----5--5--5----|--7--7--7----7--7--7----|--2--2--2----2--2--2----|
--5--5--5----5--5--5----|--5--5--5----5--5--5----|--2--2--2----2--2--2----|
--3--3--3----3--3--3----|------------------------|--0--0--0----0--0--0----|


  E  E  Q    E  E  Q       E  E  Q    E  E  Q       E  E  Q    E  E  Q     
------------------------|------------------------|------------------------|
------------------------|------------------------|------------------------|
--5--5--5----5--5--5----|------------------------|--7--7--7----7--7--7----|
--5--5--5----5--5--5----|--5--5--5----5--5--5----|--7--7--7----7--7--7----|
--3--3--3----3--3--3----|--5--5--5----5--5--5----|--5--5--5----5--5--5----|
------------------------|--3--3--3----3--3--3----|------------------------|


   Q     E   E   Q    E   E      Q    E   E   E   E   E   E   
-----------------------------|-------------------------------|
-----------------------------|-------------------------------|
--12-----x--14--14----x--12--|--12----x--11--11--11--11--11--|
---------x------------x------|--------x----------------------|
--10-----x--12--12----x--10--|--10----x---9---9---9---9---9--|
---------x------------x------|--------x----------------------|


   Q     E   E   Q    E   E      Q    E   E   E   E   E   E   
-----------------------------|-------------------------------|
-----------------------------|-------------------------------|
--12-----x--14--14----x--12--|--12----x--11--11--11--11--11--|
---------x------------x------|--------x----------------------|
--10-----x--12--12----x--10--|--10----x---9---9---9---9---9--|
---------x------------x------|--------x----------------------|


   Q     E   E   Q    E   E      Q    E   E   E   E   E   E   
-----------------------------|-------------------------------|
-----------------------------|-------------------------------|
--12-----x--14--14----x--12--|--12----x--11--11--11--11--11--|
---------x------------x------|--------x----------------------|
--10-----x--12--12----x--10--|--10----x---9---9---9---9---9--|
---------x------------x------|--------x----------------------|


   Q     E   E   Q    E   E      Q    E   E   E   E   E   E            
-----------------------------|-------------------------------|-------||
-----------------------------|-------------------------------|-------||
--12-----x--14--14----x--12--|--12----x--11--11--11--11--11--|-------||
---------x------------x------|--------x----------------------|-------||
--10-----x--12--12----x--10--|--10----x---9---9---9---9---9--|-------||
---------x------------x------|--------x----------------------|-------||




_____________________________________________________________________________
*****************************************************************************
_____________________________________________________________________________

Guitar 2
                                                                          
Bizzy D



                             H        E  E  E  E     E  E  E  E  E  E  E  E   
E||-------|-------|-------|-----------7--7--L--L--|--------------------------|
B||-------|-------|-------|--------------7--L--L--|--------------------------|
G||-------|-------|-------|-----------------------|--------------------------|
D||-------|-------|-------|-----------------------|--------------9--9--9--9--|
A||-------|-------|-------|-----------------------|--7--7--7--7--------------|
E||-------|-------|-------|-----------------------|--------------------------|


  E  E  E  E  E  E  E  E     E  E  E  E  E  E  E  E   
--------------------------|--------------------------|
--------------------------|--------------------------|
--------------------------|--------------------------|
--7--7--7--7--4--4--4--4--|--------------9--9--9--9--|
--------------------------|--7--7--7--7--------------|
--------------------------|--------------------------|


  E  E  E  E  E  E  E  E     E  E  E  E  E  E  E  E   
--------------------------|--------------------------|
--------------------------|--------------------------|
--------------------------|--------------------------|
--7--7--7--7--4--4--4--4--|--------------9--9--9--9--|
--------------------------|--7--7--7--7--------------|
--------------------------|--------------------------|


  E  E  E  E  E  E  E  E     E  E  E  E  E  E  E  E   
--------------------------|--------------------------|
--------------------------|--------------------------|
--------------------------|--------------------------|
--7--7--7--7--4--4--4--4--|--------------9--9--9--9--|
--------------------------|--7--7--7--7--------------|
--------------------------|--------------------------|


  E  E  E  E  E  E  E  E     Q     Q    Q    Q                               
--------------------------|-----------------------|-------|-----|-----|-----|
--------------------------|-----------------------|-------|-----|-----|-----|
--------------------------|-----------------------|-------|-----|-----|-----|
--7--7--7--7--4--4--4--4--|-----------------------|-------|-----|-----|-----|
--------------------------|--7S-------------------|-------|-----|-----|-----|
--------------------------|-----------------------|-------|-----|-----|-----|


-----|-----|-----|-----|-----|-----|-----|-----|-----|-----|
-----|-----|-----|-----|-----|-----|-----|-----|-----|-----|
-----|-----|-----|-----|-----|-----|-----|-----|-----|-----|
-----|-----|-----|-----|-----|-----|-----|-----|-----|-----|
-----|-----|-----|-----|-----|-----|-----|-----|-----|-----|
-----|-----|-----|-----|-----|-----|-----|-----|-----|-----|


  E  E  E  E  E  E  E  E     E  E  E  E  E  E  E  E   
--------------7-----------|--------------------------|
-----------------7--------|--------------------------|
--------------------7-----|--------------------------|
-----------------------7--|--2--2--2--2--2--2--2--2--|
--------------------------|--2--2--2--2--2--2--2--2--|
--------------------------|--0--0--0--0--0--0--0--0--|


  E  E  E  E  E  E  E  E     E  E  E  E  E  E  E  E   
--------------------------|--------------------------|
--------------------------|--------------------------|
--5--5--5--5--5--5--5--5--|--------------------------|
--5--5--5--5--5--5--5--5--|--5--5--5--5--5--5--5--5--|
--3--3--3--3--3--3--3--3--|--5--5--5--5--5--5--5--5--|
--------------------------|--3--3--3--3--3--3--3--3--|


  E  E  E  E  E  E  E  E     E  E  E  E  E  E  E  E   
--------------------------|--------------------------|
--------------------------|--------------------------|
--7--7--7--7--7--7--7--7--|--------------------------|
--7--7--7--7--7--7--7--7--|--2--2--2--2--2--2--2--2--|
--5--5--5--5--5--5--5--5--|--2--2--2--2--2--2--2--2--|
--------------------------|--0--0--0--0--0--0--0--0--|


  E  E  E  E  E  E  E  E     E  E  E  E  E  E  E  E   
--------------------------|--------------------------|
--------------------------|--------------------------|
--5--5--5--5--5--5--5--5--|--------------------------|
--5--5--5--5--5--5--5--5--|--5--5--5--5--5--5--5--5--|
--3--3--3--3--3--3--3--3--|--5--5--5--5--5--5--5--5--|
--------------------------|--3--3--3--3--3--3--3--3--|


  E  E  E  E  E  E  E  E     E  E  E  E  E  E  E  E   
--------------------------|--------------------------|
--------------------------|--------------------------|
--7--7--7--7--7--7--7--7--|--------------------------|
--7--7--7--7--7--7--7--7--|--2--2--2--2--2--2--2--2--|
--5--5--5--5--5--5--5--5--|--2--2--2--2--2--2--2--2--|
--------------------------|--0--0--0--0--0--0--0--0--|

[ Tab from: http://www.guitaretab.com/s/sum-41/111012.html ]
  E  E  E  E  E  E  E  E     E  E  E  E  E  E  E  E   
--------------------------|--------------------------|
--------------------------|--------------------------|
--5--5--5--5--5--5--5--5--|--------------------------|
--5--5--5--5--5--5--5--5--|--5--5--5--5--5--5--5--5--|
--3--3--3--3--3--3--3--3--|--5--5--5--5--5--5--5--5--|
--------------------------|--3--3--3--3--3--3--3--3--|


  E  E  E  E  E  E  E  E                                                   
--------------------------|-----|-----|-----|-----|-----|-----|-----|-----|
--------------------------|-----|-----|-----|-----|-----|-----|-----|-----|
--7--7--7--7--7--7--7--7--|-----|-----|-----|-----|-----|-----|-----|-----|
--7--7--7--7--7--7--7--7--|-----|-----|-----|-----|-----|-----|-----|-----|
--5--5--5--5--5--5--5--5--|-----|-----|-----|-----|-----|-----|-----|-----|
--------------------------|-----|-----|-----|-----|-----|-----|-----|-----|


                                            E  E  E  E  E  E  E  E   
-----|-----|-----|-----|-----|-----|-----|--------------7-----------|
-----|-----|-----|-----|-----|-----|-----|-----------------7--------|
-----|-----|-----|-----|-----|-----|-----|--------------------7-----|
-----|-----|-----|-----|-----|-----|-----|-----------------------7--|
-----|-----|-----|-----|-----|-----|-----|--------------------------|
-----|-----|-----|-----|-----|-----|-----|--------------------------|


  E  E  E  E  E  E  E  E     E  E  E  E  E  E  E  E   
--------------------------|--------------------------|
--------------------------|--------------------------|
--------------------------|--5--5--5--5--5--5--5--5--|
--2--2--2--2--2--2--2--2--|--5--5--5--5--5--5--5--5--|
--2--2--2--2--2--2--2--2--|--3--3--3--3--3--3--3--3--|
--0--0--0--0--0--0--0--0--|--------------------------|


  E  E  E  E  E  E  E  E     E  E  E  E  E  E  E  E   
--------------------------|--------------------------|
--------------------------|--------------------------|
--------------------------|--7--7--7--7--7--7--7--7--|
--5--5--5--5--5--5--5--5--|--7--7--7--7--7--7--7--7--|
--5--5--5--5--5--5--5--5--|--5--5--5--5--5--5--5--5--|
--3--3--3--3--3--3--3--3--|--------------------------|


  E  E  E  E  E  E  E  E     E  E  E  E  E  E  E  E   
--------------------------|--------------------------|
--------------------------|--------------------------|
--------------------------|--5--5--5--5--5--5--5--5--|
--2--2--2--2--2--2--2--2--|--5--5--5--5--5--5--5--5--|
--2--2--2--2--2--2--2--2--|--3--3--3--3--3--3--3--3--|
--0--0--0--0--0--0--0--0--|--------------------------|


  E  E  E  E  E  E  E  E     E  E  E  E  E  E  E  E     Q    Q    Q    Q     
--------------------------|--------------------------|----------------------|
--------------------------|--------------------------|----------------------|
--------------------------|--7--7--7--7--7--7--7--7--|----------------------|
--5--5--5--5--5--5--5--5--|--7--7--7--7--7--7--7--7--|--2----2----2----2----|
--5--5--5--5--5--5--5--5--|--5--5--5--5--5--5--5--5--|--2----2----2----2----|
--3--3--3--3--3--3--3--3--|--------------------------|--0----0----0----0----|


  E  E  E  E  E  E  E  E     Q    Q    Q    Q       E  E  E  E  E  E  E  E   
--------------------------|----------------------|--------------------------|
--------------------------|----------------------|--------------------------|
--5--5--5--5--5--5--5--5--|----------------------|--------------------------|
--5--5--5--5--5--5--5--5--|--5----5----5----5----|--4--4--4--4--4--4--4--4--|
--3--3--3--3--3--3--3--3--|--5----5----5----5----|--4--4--4--4--4--4--4--4--|
--------------------------|--3----3----3----3----|--2--2--2--2--2--2--2--2--|


  Q    Q    Q    Q       E  E  E  E  E  E  E  E     Q    Q    Q    Q     
----------------------|--------------------------|----------------------|
----------------------|--------------------------|----------------------|
----------------------|--5--5--5--5--5--5--5--5--|----------------------|
--2----2----2----2----|--5--5--5--5--5--5--5--5--|--5----5----5----5----|
--2----2----2----2----|--3--3--3--3--3--3--3--3--|--5----5----5----5----|
--0----0----0----0----|--------------------------|--3----3----3----3----|


  E  E  E  E  E  E  E  E     Q    Q    Q    Q       E  E  E  E  E  E  E  E   
--------------------------|----------------------|--------------------------|
--------------------------|----------------------|--------------------------|
--------------------------|----------------------|--5--5--5--5--5--5--5--5--|
--4--4--4--4--4--4--4--4--|--2----2----2----2----|--5--5--5--5--5--5--5--5--|
--4--4--4--4--4--4--4--4--|--2----2----2----2----|--3--3--3--3--3--3--3--3--|
--2--2--2--2--2--2--2--2--|--0----0----0----0----|--------------------------|


  Q    Q    Q    Q       E  E  E  E  E  E  E  E     Q    Q    Q    Q     
----------------------|--------------------------|----------------------|
----------------------|--------------------------|----------------------|
----------------------|--------------------------|----------------------|
--5----5----5----5----|--4--4--4--4--4--4--4--4--|--2----2----2----2----|
--5----5----5----5----|--4--4--4--4--4--4--4--4--|--2----2----2----2----|
--3----3----3----3----|--2--2--2--2--2--2--2--2--|--0----0----0----0----|


  E  E  E  E  E  E  E  E     E  E  Q    Q    E  E     Q    Q    Q    Q     
--------------------------|------------------------|----------------------|
--------------------------|------------------------|----------------------|
--5--5--5--5--5--5--5--5--|------------------------|----------------------|
--5--5--5--5--5--5--5--5--|--x--x--5----5----x--x--|--5----5--------------|
--3--3--3--3--3--3--3--3--|--x--x--5----5----x--x--|--5----5--------------|
--------------------------|--x--x--3----3----x--x--|--3----3--------------|


  E  E  E  E  E  E  E  E     E  E  E  E  E  E  E  E   
--------------------------|--------------------------|
--------------------------|--------------------------|
--------------------------|--5--5--5--5--5--5--5--5--|
--2--2--2--2--2--2--2--2--|--5--5--5--5--5--5--5--5--|
--2--2--2--2--2--2--2--2--|--3--3--3--3--3--3--3--3--|
--0--0--0--0--0--0--0--0--|--------------------------|


  E  E  E  E  E  E  E  E     E  E  E  E  E  E  E  E   
--------------------------|--------------------------|
--------------------------|--------------------------|
--------------------------|--7--7--7--7--7--7--7--7--|
--5--5--5--5--5--5--5--5--|--7--7--7--7--7--7--7--7--|
--5--5--5--5--5--5--5--5--|--5--5--5--5--5--5--5--5--|
--3--3--3--3--3--3--3--3--|--------------------------|


  E  E  E  E  E  E  E  E     E  E  E  E  E  E  E  E   
--------------------------|--------------------------|
--------------------------|--------------------------|
--------------------------|--5--5--5--5--5--5--5--5--|
--2--2--2--2--2--2--2--2--|--5--5--5--5--5--5--5--5--|
--2--2--2--2--2--2--2--2--|--3--3--3--3--3--3--3--3--|
--0--0--0--0--0--0--0--0--|--------------------------|


  E  E  E  E  E  E  E  E     E  E  E  E  E  E  E  E   
--------------------------|--------------------------|
--------------------------|--------------------------|
--------------------------|--7--7--7--7--7--7--7--7--|
--5--5--5--5--5--5--5--5--|--7--7--7--7--7--7--7--7--|
--5--5--5--5--5--5--5--5--|--5--5--5--5--5--5--5--5--|
--3--3--3--3--3--3--3--3--|--------------------------|


  E  E  E  E  E  E  E  E     E  E  E  E  E  E  E  E   
--------------------------|--------------------------|
--------------------------|--------------------------|
--------------------------|--5--5--5--5--5--5--5--5--|
--2--2--2--2--2--2--2--2--|--5--5--5--5--5--5--5--5--|
--2--2--2--2--2--2--2--2--|--3--3--3--3--3--3--3--3--|
--0--0--0--0--0--0--0--0--|--------------------------|


  E  E  E  E  E  E  E  E     E  E  E  E  E  E  E  E   
--------------------------|--------------------------|
--------------------------|--------------------------|
--------------------------|--7--7--7--7--7--7--7--7--|
--5--5--5--5--5--5--5--5--|--7--7--7--7--7--7--7--7--|
--5--5--5--5--5--5--5--5--|--5--5--5--5--5--5--5--5--|
--3--3--3--3--3--3--3--3--|--------------------------|


  E  E  E  E  E  E  E  E     E  E  E  E  E  E  E  E   
--------------------------|--------------------------|
--------------------------|--------------------------|
--------------------------|--5--5--5--5--5--5--5--5--|
--2--2--2--2--2--2--2--2--|--5--5--5--5--5--5--5--5--|
--2--2--2--2--2--2--2--2--|--3--3--3--3--3--3--3--3--|
--0--0--0--0--0--0--0--0--|--------------------------|


  E  E  E  E  E  E  E  E     E  E  E  E  E  E  E  E         
--------------------------|--------------------------|-----|
--------------------------|--------------------------|-----|
--------------------------|--7--7--7--7--7--7--7--7--|-----|
--5--5--5--5--5--5--5--5--|--7--7--7--7--7--7--7--7--|-----|
--5--5--5--5--5--5--5--5--|--5--5--5--5--5--5--5--5--|-----|
--3--3--3--3--3--3--3--3--|--------------------------|-----|


  E  E  Q    E  E  Q       E  E  Q    E  E  Q       E  E  Q    E  E  Q     
------------------------|------------------------|------------------------|
------------------------|------------------------|------------------------|
------------------------|--5--5--5----5--5--5----|------------------------|
--2--2--2----2--2--2----|--5--5--5----5--5--5----|--5--5--5----5--5--5----|
--2--2--2----2--2--2----|--3--3--3----3--3--3----|--5--5--5----5--5--5----|
--0--0--0----0--0--0----|------------------------|--3--3--3----3--3--3----|


  E  E  Q    E  E  Q       E  E  Q    E  E  Q       E  E  Q    E  E  Q     
------------------------|------------------------|------------------------|
------------------------|------------------------|------------------------|
--7--7--7----7--7--7----|------------------------|--5--5--5----5--5--5----|
--7--7--7----7--7--7----|--2--2--2----2--2--2----|--5--5--5----5--5--5----|
--5--5--5----5--5--5----|--2--2--2----2--2--2----|--3--3--3----3--3--3----|
------------------------|--0--0--0----0--0--0----|------------------------|


  E  E  Q    E  E  Q       E  E  Q    E  E  Q       E  E  E  E  E  E  E  E   
------------------------|------------------------|--------------------------|
------------------------|------------------------|--------------------------|
------------------------|--7--7--7----7--7--7----|--------------------------|
--5--5--5----5--5--5----|--7--7--7----7--7--7----|--2--2--2--2--2--2--2--2--|
--5--5--5----5--5--5----|--5--5--5----5--5--5----|--2--2--2--2--2--2--2--2--|
--3--3--3----3--3--3----|------------------------|--0--0--0--0--0--0--0--0--|


  E  E  E  E  E  E  E  E     E  E  E  E  E  E  E  E   
--------------------------|--------------------------|
--------------------------|--------------------------|
--5--5--5--5--5--5--5--5--|--------------------------|
--5--5--5--5--5--5--5--5--|--5--5--5--5--5--5--5--5--|
--3--3--3--3--3--3--3--3--|--5--5--5--5--5--5--5--5--|
--------------------------|--3--3--3--3--3--3--3--3--|


  E  E  E  E  E  E  E  E     E  E  E  E  E  E  E  E   
--------------------------|--------------------------|
--------------------------|--------------------------|
--7--7--7--7--7--7--7--7--|--------------------------|
--7--7--7--7--7--7--7--7--|--2--2--2--2--2--2--2--2--|
--5--5--5--5--5--5--5--5--|--2--2--2--2--2--2--2--2--|
--------------------------|--0--0--0--0--0--0--0--0--|


  E  E  E  E  E  E  E  E     E  E  E  E  E  E  E  E   
--------------------------|--------------------------|
--------------------------|--------------------------|
--5--5--5--5--5--5--5--5--|--------------------------|
--5--5--5--5--5--5--5--5--|--5--5--5--5--5--5--5--5--|
--3--3--3--3--3--3--3--3--|--5--5--5--5--5--5--5--5--|
--------------------------|--3--3--3--3--3--3--3--3--|


  E  E  E  E  E  E  E  E            
--------------------------|-------||
--------------------------|-------||
--7--7--7--7--7--7--7--7--|-------||
--7--7--7--7--7--7--7--7--|-------||
--5--5--5--5--5--5--5--5--|-------||
--------------------------|-------||


_________________________________________________________________________________
*********************************************************************************
_________________________________________________________________________________

Bass

                                                                          
Cone



                                     E  E  E  E   E   E   E   E   
G||-------|-------|-------|-------|------------------------------|
D||-------|-------|-------|-------|------------------------------|
A||-------|-------|-------|-------|--7--7--7--7--10--10--10--10--|
E||-------|-------|-------|-------|------------------------------|


   E   E   E   E   Q    Q       E  E  E  E   E   E   E   E   
-----------------------------|------------------------------|
-----------------------------|------------------------------|
------------------10----9----|--7--7--7--7--10--10--10--10--|
--10--10--10--10-------------|------------------------------|


   E   E   E   E   Q    Q       E  E  E  E   E   E   E   E   
-----------------------------|------------------------------|
-----------------------------|------------------------------|
------------------10----9----|--7--7--7--7--10--10--10--10--|
--10--10--10--10-------------|------------------------------|


   E   E   E   E   Q    Q       E  E  E  E   E   E   E   E   
-----------------------------|------------------------------|
-----------------------------|------------------------------|
------------------10----9----|--7--7--7--7--10--10--10--10--|
--10--10--10--10-------------|------------------------------|


   E   E   E   E   Q    Q       E  E  E  E  E  E  E  E   
-----------------------------|--------------------------|
-----------------------------|--------------------------|
------------------10----9----|--7--7-----------------7--|
--10--10--10--10-------------|--------------------------|


   E   E  E   E  E  E  E  E     E  E  E  E  E  E  E  E   
-----------------------------|--------------------------|
-----------------------------|--------------------------|
--10--10-----10--9--5-----5--|--7--7-----------------7--|
-----------------------------|--------------------------|


   E   E  E   E  E  E  E  E     E  E  E  E  E  E  E  E   
-----------------------------|--------------------------|
-----------------------------|--------------------------|
--10--10-----10--9--5-----5--|--7--7-----------------7--|
-----------------------------|--------------------------|


   E   E  E   E  E  E  E  E     E  E  E  E  E  E  E  E   
-----------------------------|--------------------------|
-----------------------------|--------------------------|
--10--10-----10--9--5-----5--|--7--7-----------------7--|
-----------------------------|--------------------------|


   E   E  E   E  E  E  E  E     E  E  E  E  E  E  E  E   
-----------------------------|--------------------------|
-----------------------------|--------2--------2-----2--|
--10--10-----10--9--5-----5--|--3--3-----3--3-----3-----|
-----------------------------|--------------------------|


  E  E  E  E  E  E  E  E     E  E  E  E  E  E  E  E   
--------------------------|--------------------------|
--------4--------4-----4--|--------5-----4--5--------|
--5--5-----5--5-----5-----|--7--7-----7--------7--7--|
--------------------------|--------------------------|


  E  E  E  E  E  E  E  E     E  E  E  E  E  E  E  E   
--------------------------|--------------------------|
--------5-----4--5--4-----|--------2--------2-----2--|
--7--7-----7-----------7--|--3--3-----3--3-----3-----|
--------------------------|--------------------------|


  E  E  E  E  E  E  E  E     E  E  E  E  E  E  E  E   
--------------------------|--------------------------|
--------4--------4-----4--|--------------------------|
--5--5-----5--5-----5-----|--------------------------|
--------------------------|--0--0--0--0--0--0--0--0--|


  E  E  E  E  E  E  E  E     E  E  E  E  E  E  E  E   
--------------------------|--------------------------|
--------------------------|--------------------------|
--------------------------|--------------------------|
--0--0--0--0--------------|--0--0--0--0--0--0--0--0--|


  E  E  E  E  E  E  E  E     E  E  E  E  E  E  E  E   
--------------------------|--------------------------|
--------------------------|--------------------------|
--3--3--3--3--3--3--3--3--|--------------------------|
--------------------------|--3--3--3--3--3--3--3--3--|


  E  E  E  E  E  E  E  E     E  E  E  E  E  E  E  E   
--------------------------|--------------------------|
--------------------------|--------------------------|
--5--5--5--5--5--3--5--7--|--7--7--7--7--7--7--7--7--|
--------------------------|--------------------------|


   E   E   E   E   E   E   E   E      E   E   E   E   E   E   E   E   
----------------------------------|----------------------------------|
----------------------------------|----------------------------------|
--10--10--10--10--10--10--10--10--|----------------------------------|
----------------------------------|--10--10--10--10--10--10--10--10--|


   E   E   E   E   E   E   E   E     Q    E  E  Q    E  E   
----------------------------------|------------------------|
----------------------------------|------------------------|
----------------------------------|----------3--3----------|
--10--10--10--10--10--10--10--10--|--0------------------3--|


  Q    E  E  E  E  E  E     Q    E  E  Q    E  E     Q    E  E  E  E  E  E   
-------------------------|------------------------|-------------------------|
-------------------------|------------------------|-------------------------|
----------5--5--5--3--5--|----------3--3----------|----------5--5--5--3--5--|
--3----------------------|--0------------------3--|--3----------------------|


  E  E  E  E  E  E  E  E      E   E  E   E  E  E  E  E   
--------------------------|-----------------------------|
--------------------------|-----------------------------|
--7--7-----------------7--|--10--10-----10--9--5-----5--|
--------------------------|-----------------------------|


  E  E  E  E  E  E  E  E      E   E  E   E  E  E  E  E   
--------------------------|-----------------------------|
--------------------------|-----------------------------|
--7--7-----------------7--|--10--10-----10--9--5-----5--|
--------------------------|-----------------------------|


  E  E  E  E  E  E  E  E      E   E  E   E  E  E  E  E   
--------------------------|-----------------------------|
--------------------------|-----------------------------|
--7--7-----------------7--|--10--10-----10--9--5-----5--|
--------------------------|-----------------------------|


  E  E  E  E  E  E  E  E      E   E  E   E  E  E  E  E   
--------------------------|-----------------------------|
--------------------------|-----------------------------|
--7--7-----------------7--|--10--10-----10--9--5-----5--|
--------------------------|-----------------------------|


  E  E  E  E  E  E  E  E     E  E  E  E  E  E  E  E   
--------------------------|--------------------------|
--------2--------2-----2--|--------4--------4-----4--|
--3--3-----3--3-----3-----|--5--5-----5--5-----5-----|
--------------------------|--------------------------|


  E  E  E  E  E  E  E  E     E  E  E  E  E  E  E  E   
--------------------------|--------------------------|
--------5-----4--5--------|--------5-----4--5--4-----|
--7--7-----7--------7--7--|--7--7-----7-----------7--|
--------------------------|--------------------------|


  E  E  E  E  E  E  E  E     E  E  E  E  E  E  E  E   
--------------------------|--------------------------|
--------2--------2-----2--|--------4--------4-----4--|
--3--3-----3--3-----3-----|--5--5-----5--5-----5-----|
--------------------------|--------------------------|


  E  E  E  E  E  E  E  E     E  E  E  E  E  E  E  E   
--------------------------|--------------------------|
--------------------------|--------------------------|
--------------------------|--------------------------|
--0--0--0--0--0--0--0--0--|--0--0--0--0--------------|


  E  E  E  E  E  E  E  E     E  E  E  E  E  E  E  E   
--------------------------|--------------------------|
--------------------------|--------------------------|
--------------------------|--3--3--3--3--3--3--3--3--|
--0--0--0--0--0--0--0--0--|--------------------------|


  E  E  E  E  E  E  E  E     E  E  E  E  E  E  E  E   
--------------------------|--------------------------|
--------------------------|--------------------------|
--------------------------|--5--5--5--5--5--3--5--7--|
--3--3--3--3--3--3--3--3--|--------------------------|


  E  E  E  E  E  E  E  E      E   E   E   E   E   E   E   E   
--------------------------|----------------------------------|
--------------------------|----------------------------------|
--7--7--7--7--7--7--7--7--|--10--10--10--10--10--10--10--10--|
--------------------------|----------------------------------|


   E   E   E   E   E   E   E   E      E   E   E   E   E   E   E   E   
----------------------------------|----------------------------------|
----------------------------------|----------------------------------|
----------------------------------|----------------------------------|
--10--10--10--10--10--10--10--10--|--10--10--10--10--10--10--10--10--|


  Q    Q    Q    Q       E  E  E  E  E  E  E  E     Q    Q    Q    Q     
----------------------|--------------------------|----------------------|
----------------------|--------------------------|----------------------|
----------------------|--3--3--3--3--3--3--3--3--|----------------------|
--0----0----0----0----|--------------------------|--3----3----3----3----|


  E  E  E  E  E  E  E  E     Q    Q    Q    Q     
--------------------------|----------------------|
--------------------------|----------------------|
--------------------------|--7----7----7----7----|
--2--2--2--2--2--2--2--2--|----------------------|


   E   E   E   E   E   E   E   E      Q     Q     Q     Q     
----------------------------------|--------------------------|
----------------------------------|--------------------------|
--10--10--10--10--10--10--10--10--|--------------------------|
----------------------------------|--10----10----10----10----|


   E   E   E   E   E   E   E   E     Q    Q    Q    Q     
----------------------------------|----------------------|
----------------------------------|----------------------|
----------------------------------|----------------------|
--10--10--10--10--10--10--10--10--|--0----0----0----0----|


  E  E  E  E  E  E  E  E     Q    Q    Q    Q       E  E  E  E  E  E  E  E   
--------------------------|----------------------|--------------------------|
--------------------------|----------------------|--------------------------|
--3--3--3--3--3--3--3--3--|----------------------|--------------------------|
--------------------------|--3----3----3----3----|--2--2--2--2--2--2--2--2--|


  Q    Q    Q    Q        E   E   E   E   E   E   E   E   
----------------------|----------------------------------|
----------------------|----------------------------------|
--7----7----7----7----|--10--10--10--10--10--10--10--10--|
----------------------|----------------------------------|


  E  E   Q     Q    E  E      Q     Q    Q     E  E   
--------------------------|--------------------------|
--------------------------|--------------------------|
--------------------------|--------------------------|
--x--x--10----10----x--x--|--10----10---------10-----|


  E  E  E  E  E  E  E  E     E  E  E  E  E  E  E  E   
--------------------------|--------------------------|
--------------------------|--------------------------|
--------------------------|--3--3--3--3--3--3--3--3--|
--0--0--0--0--0--0--0--0--|--------------------------|


  E  E  E  E  E  E  E  E     Q    Q    Q    Q       E  E  E  E  E  E  E  E   
--------------------------|----------------------|--------------------------|
--------------------------|----------------------|--------------------------|
--------------------------|----------------------|--------------------------|
--3--3--3--3--0--0--0--0--|--5----3----2----3----|--0--0--0--0--0--0--0--0--|


  E  E  E  E  E  E  E  E     E  E  E  E  E  E  E  E     Q    Q    Q    Q     
--------------------------|--------------------------|----------------------|
--------------------------|--------------------------|----------------------|
--3--3--3--3--3--3--3--3--|--------------------------|----------------------|
--------------------------|--3--3--3--3--0--0--0--0--|--5----3----2----3----|


  E  E  E  E  E  E  E  E     E  E  E  E  E  E  E  E   
--------------------------|--------------------------|
--------------------------|--------------------------|
--------------------------|--3--3--3--3--3--3--3--3--|
--0--0--0--0--0--0--0--0--|--------------------------|


  E  E  E  E  E  E  E  E     Q    Q    Q    Q       E  E  E  E  E  E  E  E   
--------------------------|----------------------|--------------------------|
--------------------------|----------------------|--------------------------|
--------------------------|----------------------|--------------------------|
--3--3--3--3--0--0--0--0--|--5----3----2----3----|--0--0--0--0--0--0--0--0--|


  E  E  E  E  E  E  E  E     E  E  E  E  E  E  E  E     Q    Q    Q    Q     
--------------------------|--------------------------|----------------------|
--------------------------|--------------------------|----------------------|
--3--3--3--3--3--3--3--3--|--------------------------|----------------------|
--------------------------|--3--3--3--3--0--0--0--0--|--5----3----2----3----|


          E  E  E  E  E  E  E  E     E  E  E  E  E  E  E  E   
-------|--------------------------|--------------------------|
-------|--------------------------|--------------------------|
-------|--------------------------|--3--3--3--3--3--3--3--3--|
-------|--0--0--0--0--0--0--0--0--|--------------------------|


  E  E  E  E  E  E  E  E     E  E  E  E  E  E  E  E   
--------------------------|--------------------------|
--------------------------|--------------------------|
--------------------------|--5--5--5--5--5--3--5--7--|
--3--3--3--3--3--3--3--3--|--------------------------|


  E  E  E  E  E  E  E  E      E   E   E   E   E   E   E   E   
--------------------------|----------------------------------|
--------------------------|----------------------------------|
--7--7--7--7--7--7--7--7--|--10--10--10--10--10--10--10--10--|
--------------------------|----------------------------------|


   E   E   E   E   E   E   E   E      E   E   E   E   E   E   E   E   
----------------------------------|----------------------------------|
----------------------------------|----------------------------------|
----------------------------------|----------------------------------|
--10--10--10--10--10--10--10--10--|--10--10--10--10--10--10--10--10--|


  Q    E  E  Q    E  E     Q    E  E  E  E  E  E     Q    E  E  Q    E  E   
------------------------|-------------------------|------------------------|
------------------------|-------------------------|------------------------|
----------3--3----------|----------5--5--5--3--5--|----------3--3----------|
--0------------------3--|--3----------------------|--0------------------3--|


  Q    E  E  E  E  E  E     Q    E  E  Q    E  E     Q    E  E  E  E  E  E   
-------------------------|------------------------|-------------------------|
-------------------------|------------------------|-------------------------|
----------5--5--5--3--5--|----------3--3----------|----------5--5--5--3--5--|
--3----------------------|--0------------------3--|--3----------------------|


  Q    E  E  Q    E  E     Q    E  E  E  E  E  E            
------------------------|-------------------------|-------||
------------------------|-------------------------|-------||
----------3--3----------|----------5--5--5--3--5--|-------||
--0------------------3--|--3----------------------|-------||




Duration Legend
---------------
W - whole
H - half
Q - quarter
E - 8th
S - 16th
T - 32nd
X - 64th
. - note dotted
|-n-|  - n-tuplets


Tablature Legend
----------------
L - tied note
x - dead note
g - grace note
(n) - ghost note
> - accentuded note
NH - natural harmonic
AH - artificial harmonic
TH - tapped harmonic
SH - semi harmonic
PH - pitch harmonic
h - hammer on
p - pull off
b - bend
br - bendRelease
pb - preBend
pbr - preBendRelease
brb - bendReleaseBend
\n/ - tremolo bar dip
\n - tremolo bar dive
-/n - tremolo bar Release up
/n\ - tremolo bar inverted dip
/n - tremolo bar return
-\n - tremolo bar Release down
S - shift slide
s - legato slide
/ -  slide into from below or out of upwards
\ -  slide into from above or out of downwards
~ - vibrato
W - wide vibrato
tr - trill
TP - tremolo picking
T - tapping
S - slap
P - pop
< - fade in
^ - brush up
v - brush down
Related for Over My Head Better Off Dead tab
×
Over My Head Better Off Dead