Song name
# A B C D E F G H I J K L M N O P Q R S T U V W X Y Z

Sum 41 - Spiderman tab

I am 100% that this is perfect it's top class

If there is any problmes e-mail me on addyman2000@yahoo.com

------------------------------------------------9-----------------------------|
--------------------------------9------10-------------10---9------------------|
------------11----9----11-----------------------------------------------------|                 REPETE
------------------------------------------------------------------------------|
------------------------------------------------------------------------------|
------------------------------------------------------------------------------|


-----------13-----13------12-----12------11------11---------10--------10--------|
-----------12-----12------11-----11------10------10---------9----------9--------|
--------------------------------------------------------------------------------|
--------------------------------------------------------------------------------|
--------------------------------------------------------------------------------|
--------------------------------------------------------------------------------|


Verse

-----------------------------------------------------------------------------------------|
-----------------------------------------------------------------------------------------|
-----------------------------------------------------------------------------------------|
-----------------------------------------------------------------------------------------|           REPETE
-----------------------------------------------------------------2--3--2--0--2--3--2--0--|
-----------2---2--------2---5---5--------5---7---7----5----------------------------------|

Chorus

-----------2----2----2-----5------7---7---7---8------|
-----------4----4----4-----7------9---9---9---10-----|
-----------4----4----4-----7------9---9---9---10-----|
-----------------------------------------------------|
-----------------------------------------------------|
-----------------------------------------------------|
Tap to rate this tab
# A B C D E F G H I J K L M N O P Q R S T U V W X Y Z